PrimaNota.ru - самый крупный в мире бесплатный архив песенных текстов, аккордов, табулатур и нот


I.F.K. - Pepel - таба, видео

Регистрация Запомнить меня
Войти через:  Facebook Google Twitter Vk Yandex Mail.ru

I.F.K. - Pepel - таба, видео

Печатать
Просмотров: 205
PEPEL (ASHES)
by:I.F.K.
tabbed by: Mikus
s...=sustain
pm....=palm mute
b....=bend

This song is by a Russian band called IFK.  They are really awesome, though they are not widely known here.  They are the equivalent (lyrically) of Rage Against the Machine, only in Russia, where such nonsense is not tolerated.  

The only effects for this song that you need is a kind of weird phaser.  Just figure something out.  Everything else is pretty chunky distortion.  



D6|----------------------------------------------------|
A5|----------------------------------------------------|
F4|----------------------------------------------------|
C3|-0--0------0--0------0--0------0-0-0-0h1------------|
G2|-0--0-1-2--0--0-1-2--0--0-1-2--0-0-0-0h1------------|
C1|-0--0-1-2--0--0-1-2--0--0-1-2--0-0-0-0h1------------|
                                  pm.....   


Bass line (with phaser)
C1|-0------0---5-6-7-----------------------------------|
    s..........


Verse
|----------------------|
|----------------------|
|----------------------|
|---9b----9b-----------|
|----------------------|
|----------------------|
  bend w/ tremelo

|-----------------|----------------------|
|-----------------|----------------------|
|-----------------|--------5-6-7---------|
|---------5-6-7---|----------------------|
|-----------------|----------------------|
|-0---0-----------|--0---0---------------|
 repeat 4x......    repeat 4x.....


Bridge
|-----------------------------------------------------|
|-----------------------------------------------------|
|-----------------------------------------------------|
|-0-xx-0-xx-0-xx-0h1---0-xx-0-xx-0-xx-0h1-------------|
|-0-xx-0-xx-0-xx-0h1---0-xx-0-xx-0-xx-0h1-------------|
|-0-xx-0-xx-0-xx-0h1---0-xx-0-xx-0-xx-0h1-------------|

     
Добавлено: 29.08.2013
Другие материалы по этой песне:
  • Аккорды и текст

Страница создана 29.08.2013
http://primanota.ru/ifk/pepel-2-chords.htm
Привет, Гость.
Предлагаем пройти революционный курс по гитаре.
Подарок от PrimaNota.Ru, забирай!