PrimaNota.ru - самый крупный в мире бесплатный архив песенных текстов, аккордов, табулатур и нот


If These Trees Could Talk - The Friscalating Dusklight - таба, видео

Регистрация Запомнить меня
Войти через:  Facebook Google Twitter Vk Yandex Mail.ru

If These Trees Could Talk - The Friscalating Dusklight - таба, видео

Печатать
Просмотров: 215
Tuning: Drop D

D A D G B e

Timing:
6/8 and 4/8

If These Trees Could Talk plays with 3 guitarists. I tabbed out one of the guitars.

Intro:
Repeat 4 Times

E ---------------------------------------------------------|
B --------7--------------7-----------7---------------7-----|
G ------7---7--------7-----7-------7---7---------7-----7---|
D ----4-------4----4---4---------4-------4-----4---4-------|
A ---------------------------------------------------------|
D --0------------0-------------0-------------0-------------|


-----------------------------------------------------------|
------7---7-----------7---7----------7---------------------|
--------7---7-----------7---7------7---7-------------------|
----5---------------5--------------------------------------|
-----------------------------------------------------------|
--5---------------5--------------7-------0-----------------|

Riff 1:
In this riff he uses a delay pedal.

Play all the way through first time then repeat but only play to
the / marks the 4 more times.
---------------------------------------------------------------|
----5---5------------5---5-----------5----------6---6----------|
----------5----------------5-------------5------------5--------|
---------------------------------------------------------------|
------0-----0-0--------0-----0-0-------0---0------0-----0-0----|
---------------------------------------------------------------|

-----------------------------/----------------------------------|
---6---6-----------6---------/--5---5---------5---5-------------|
---------5-------------5-----/--------5-------------5-----------|
-----------------------------/----------------------------------|
-----0-----0-0-------0---0---/----0-----0-0-----0-----0-0-------|
-----------------------------/----------------------------------|

---------------------------------------------------------------|
---5-----------6---6----------6-6-6----------------------------|
-------5-------------5--------------5--------5---5-------------|
---------------------------------------------------------------|
-----0---0-------0-----0-0------------0-0------0---0-----------|
---------------------------------------------------------------|

Riff 2:
Follows immediatlely following Riff 1
They kick in a heavy overdrive at the start of the riff.

---------------------------------------------------------------|
---------------------------------------------------------------|
----7-7-7-7-7-7-7-7-----5-5-5-5-5-5-5--------------------------|
----7-7-7-7-7-7-7-7-----5-5-5-5-5-5-5--------------------------|
----5-5-5-5-5-5-5-5-----3-3-3-3-3-3-3--------------------------|
---------------------------------------------------------------|

After Riff 2 you play Riff 1 again and go back and forth between
the two riffs a couple times. Listen to the song for the exact
number.

Riff 3

---------------------------------------------------------------|
---------------------------------------------------------------|
---5-5-x-x-5-5---5-5-x-5-5----0-0-x-0-0----0-0-x-0-0-----------|
---7-7-x-x-7-7---7-7-x-7-7----5-5-x-5-5----7-7-x-7-7-----------|
---0-0-x-x-0-0---0-0-x-0-0----7-7-x-7-7----8-8-x-8-8-----------|
---------------------------------------------------------------|


---------------------------------------------------------------|
---------------------------------------------------------------|
---0-0-x-x-0-0---0--0--0--0--0--0--0--0------------------------|
---7-7-x-x-7-7---10-10-10-10-10-10-10-10-----------------------|
---8-8-x-x-8-8---9--9--9--9--9--9--9--9------------------------|
---------------------------------------------------------------|

Well thats most of the song. Listen to the song for the timing. Enjoy
Добавлено: 27.04.2012
Вам также может быть интересно:
Другие материалы по этой песне:
  • Аккорды и текст

Страница создана 27.04.2012
http://primanota.ru/if-these-trees-could-talk/the-friscalating-dusklight-chords.htm
Привет, Гость.
Предлагаем пройти революционный курс по гитаре.
Подарок от PrimaNota.Ru, забирай!