PrimaNota.ru - самый крупный в мире бесплатный архив песенных текстов, аккордов, табулатур и нот


Idris Elba - You Give Me Love - аккорды и текст, видео

Регистрация Запомнить меня
Войти через:  Facebook Google Twitter Vk Yandex Mail.ru

Idris Elba - You Give Me Love - аккорды и текст, видео

Печатать
Просмотров: 229
Уроки эстрадного вокала в Санкт-Петербурге
You Give Me Love
Idris Elba
-----------------------------------------------------------------------------------------------
                             YOU GIVE ME LOVE - Idris Elba ft. Maverick Sabre
-----------------------------------------------------------------------------------------------
Tabbed by:ndermawan
E-mail:ndermawan@yahoo.com

Tuning: Standard


Reference: https://soundcloud.com/idriselba/you-give-me-love


Awesome song by awesomely talented guy Idris Elba! Maverick Sabre's voice on this track works so well

Chorus is played the same as the verse but has many different layering of instruments to make it sound full

- delayed + slightly over-driven guitar playing single strums (can hear clearly at 0.40)
- lead guitar part
- very audible bass lines
- backup singers
- and of course the horns section/woodwind

so apologies if I can't get it all down or tab doesn't sound exactly like it!



Chords used
-----------

  G7M   F#m7 F#m7* F#m7** Em7   D7M   or D7M  
                      
e|--10---9----12----------7----|--5-------10----|
B|--12---10---10---12-----8----|--7-------10----|
G|--11---9----9----9------7----|--6-------11----|
D|--12---11---11---11-----9----|--7-------11----|
A|--10---9----9----9------7----|--5-------12----|
E|-----------------------------|----------10----|
 

Intro:                                                                          (0.00 - 0.11)
------ 
                                  "ooh yeah yeah yeah"

e|--10------9--12----7------------|--10------9-------7------9--9-------------|
B|--12------10-10----8------------|--12------10------8------10-10------------|
G|--11------9--9-----7------------|--11------9-------7------9--9-------------|
D|--12------11-11----9------------|--12------11------9------11-11------------|
A|--10------9--9-----7------------|--10------9-------7------9--9-------------|
E|--------------------------------|------------------------------------------|


Verse 1:                                                                        (0.12 - 0.34)
--------
G7M       F#m7          Em7
      Overwhelmed by your sincerity
G7M            F#m7 F#m7**    Em7
     I have a friend in you, you have a friend in me
   G7M         F#m7 F#m7*     Em7
and as I, as I walk these roads I'm not alone
               G7M          F#m7      Em7               F#m7 F#m7
you open these doors like this is, this is my home


Chorus:                                                                         (0.35 - 1.00)
-------
                G7M      F#m7         Em7
and You give me love, so pure and so free
    F#m7     G7M                       F#m7            Em7
and you give all the little things that I could ever need
    F#m7        G7M        F#m7         Em7
and you give me love, and planted your seed,
    F#m7             D7M  
and even through the rain your smile inside will last with me


Verse 2: Chords + Palm mute guitar                                              (1.01 - 1.23)
----------------------------------
 G7M             F#m7         Em7      Em7
These streets of gold so much untold, blessed by the sun
 G7M             F#m7 F#m7*        Em7     Em7
 you touched my soul you showed me warmth, more than enough
 G7M                      F#m7          Em7
   this place that I have never been before
                   Em7    F#m7
   You took me in without even a thought
 G7M             F#m7         Em7
I thank you for my place in your heart yeah


Palm Mute guitar: Start at verse 2
e|---------------------------------------------------------------------------|
B|---------------------------------------------------------------------------| there are different
G|--11--11--11-9-11-9-11-9-7-7--(9)-----7-9---9/11---------------------------| variations; so doing
D|--------------------------------(9)----------------------------------------| your own variations
A|---------------------------------------------------------------------------| are totally OK too
E|---------------------------------------------------------------------------|


Chorus: Chords + lead guitar                                                    (1.24 - 1.47)
----------------------------
                G7M      F#m7         Em7
and You give me love, so pure and so free
    F#m7     G7M                       F#m7            Em7
and you give all the little things that I could ever need
    F#m7        G7M        F#m7         Em7
and you give me love, and planted your seed,
    F#m7             D7M  
and even through the rain your smile will last with me


Chorus lead guitar:
-------------------
e|-12b14-12--12-10--10-12----10-12----12b14-12--12-10--10--------------------|
B|------------------------10-------------------------------------------------|
G|---------------------------------------------------------------------------|
D|---------------------------------------------------------------------------|
A|---------------------------------------------------------------------------|
E|---------------------------------------------------------------------------|
                                             
e|-12b14-----12-10--10-12----10-12-10-12--10---------------------------------|
B|------------------------10-------------------------------------------------|
G|---------------------------------------------------------------------------|
D|----------------------------------------Bass notes-------------------------|
A|---------------------------------------------------------------------------|
E|----------------------------------------10----9--7--5--10--9--7--5---------|


Verse 3: Chords + Palm mute guitar                                              (1.48 - 2.12)
----------------------------------
     G7M      F#m7         Em7
oooh I yeah yeah yeahh
     G7M      F#m7         Em7
I----
     G7M      F#m7         Em7       Em7 F#m7 
Oh  I never knew this was this good
     G7M      F#m7         Em7
and I never knew this felt this good darling I said 


Chorus: Chords + Lead guitar                                                    (2.13 - 2.35)
----------------------------
                G7M      F#m7         Em7
--- You give me love, so pure and so free
    F#m7     G7M                       F#m7            Em7
and you give all the little things that I could ever need
    F#m7        G7M        F#m7         Em7
and you give me love, and planted your seed,
    F#m7             D7M  
and even through the rain your smile will last with me


Outro: Chords + Lead guitar                                                     (2.36 - 3.02)
---------------------------
                G7M      
Don't you know I
F#m7         Em7
Don't you know I
                G7M        F#m7         Em7
Said you give me love now
                G7M        F#m7         Em7
Said you give me love now
           F#m7     D7M  
I said You give me looove

-LEAD GUITAR STOPS-

                G7M      F#m7        Em7
Said you give me love so pure and so free                                       (3.03 - 3.25) 
                       G7M            F#m7              Em7
and you give me all the little things that I could ever need
                G7M        F#m7    Em7
you give me love and planted your seed
                          G7M         F#m7                Em7
and even through the rain your smile inside will last with me

-LEAD GUITAR STARTS-

G7M   F#m7         Em7    
(You, you give me love) you give, you give, you give                            (3.26 - 3.53)
G7M   F#m7         Em7    
(You, you give me love) you give, you give, you give
G7M   F#m7         Em7             F#m7     D7M  
(You, you give me love) I said you give me loooove


Lead guitar during outro (from 3.26):
-------------------------------------

e|--------10-12-12b14----12-10------10------------10-12-12b14----12-10-----10|
B|--10-12------------------------12---------10-12----------------------12-12-|
G|---------------------------------------------------------------------------|
D|---------------------------------------------------------------------------|
A|---------------------------------------------------------------------------|
E|---------------------------------------------------------------------------|
                                          
                                         |  Snyth/piano ending
                                         |
e|--------10----12b14----12-10------10---|--10----12-14-17-14----------------|
B|--10-12----12------------------12------|--10----------------17-15----------|
G|---------------------------------------|--11-------------------------------|
D|---------------------------------------|--11-------------------------------|
A|---------------------------------------|--12-------------------------------|
E|---------------------------------------|--10-------------------------------|


Apologies in advance for any mistakes! Just comment and I'll try to get back to you ASAP


************************************

| /   slide up
| \   slide down
| h   hammer-on
| p   pull-off
| ~   vibrato
| +   harmonic
| x   Mute note
| b   Bend
| pb  Pre-bend
| br  Bend release
| pbr Pre-bend release
| brb Bend release bend

************************************
Добавлено: 22.06.2015
Другие материалы по этой песне:
  • Аккорды и текст

Страница создана 22.06.2015
http://primanota.ru/idris-elba/you-give-me-love-chords.htm
Привет, Гость.
Предлагаем пройти революционный курс по гитаре.
Подарок от PrimaNota.Ru, забирай!