PrimaNota.ru - самый крупный в мире бесплатный архив песенных текстов, аккордов, табулатур и нот


Idlewild - Rusty - текст песни, таба, бас-таба, видео

Регистрация Запомнить меня
Войти через:  Facebook Google Twitter Vk Yandex Mail.ru

Idlewild - Rusty - текст песни, таба, бас-таба, видео

Печатать
Просмотров: 119
Авторы: Colin Newton, Rod Jones, Bob Fairfoull, Roddy Woomble

iDLEWiLD
Rusty

Guitar tuned down half a step (Eb, Ab, Db, Gb, Bb, Eb)


Verse Riff (Guitar 1)
Eb--0--------12--------0--------12------11-----12--------0--------12-------12----11----|
Bb-------------------------------------------------------------------------------------|
Gb-------------------------------------------------------------------------------------|

Verse Riff (Guitar 2)
Db----2---0------------0--0--0--------------------2---0-----------0--0--0-------------------|
Ab--0---0---------0-----3--3--3-----------------0---0----------0---3--3--3------------------|
Eb--------------4--------4--4--------------------------------4------4--4--------------------|
Db------------------------------5-5-5-5-4-4-4-4----------------------------5-5-5-5-4-4-4-4--|
Ab------------------------------5-5-5-5-4-4-4-4----------------------------5-5-5-5-4-4-4-4--|
Eb------------------------------3-3-3-3-2-2-2-2----------------------------3-3-3-3-2-2-2-2--|

Bridge Riff (Guitar 1)
Eb-------------------------------------------------------------------|
Bb-------------------------------------------------------------------|
Gb-------------------------------------------------------------------|
Db--3-3-3-3-3-3-3-3-3-3-3-3-3-3-3-3-2-2-2-2-2-2-2-2-2-2-2-2-2-2-2-2--|
Ab--3-3-3-3-3-3-3-3-3-3-3-3-3-3-3-3-2-2-2-2-2-2-2-2-2-2-2-2-2-2-2-2--|
Eb--1-1-1-1-1-1-1-1-1-1-1-1-1-1-1-1-0-0-0-0-0-0-0-0-0-0-0-0-0-0-0-0--| Play x 3

Eb-------------------------------------------------------------------|
Bb-------------------------------------------------------------------|
Gb-------------------------------------------------------------------|
Db--3-3-3-3-3-3-3-3-3-3-3-3-3-3-3-3-7-7-7-7-7-7-7-7-9-9-9-9-9-9-9-9--|
Ab--3-3-3-3-3-3-3-3-3-3-3-3-3-3-3-3-7-7-7-7-7-7-7-7-9-9-9-9-9-9-9-9--|
Eb--1-1-1-1-1-1-1-1-1-1-1-1-1-1-1-1-5-5-5-5-5-5-5-5-7-7-7-7-7-7-7-7--| Play x 1

Bridge Riff (Guitar 2)
Eb-------------------------------------------------------------------|
Bb-------------------------------------------------------------------|
Gb----------------------------------3-3-3-3-4-4-4-4-5-5-5-5-4-4-4-4--|
Db--3-3-3-3-3-3-3-3-3-3-3-3-3-3-3-3----------------------------------|
Ab--3-3-3-3-3-3-3-3-3-3-3-3-3-3-3-3-1-1-1-1-2-2-2-2-3-3-3-3-2-2-2-2--|
Eb--1-1-1-1-1-1-1-1-1-1-1-1-1-1-1-1----------------------------------| Play x 3

Eb-------------------------------------------------------------------|
Bb-------------------------------------------------------------------|
Gb-------------------------------------------------------------------|
Db--3-3-3-3-3-3-3-3-3-3-3-3-3-3-3-3-7-7-7-7-7-7-7-7-9-9-9-9-9-9-9-9--|
Ab--3-3-3-3-3-3-3-3-3-3-3-3-3-3-3-3-7-7-7-7-7-7-7-7-9-9-9-9-9-9-9-9--|
Eb--1-1-1-1-1-1-1-1-1-1-1-1-1-1-1-1-5-5-5-5-5-5-5-5-7-7-7-7-7-7-7-7--| Play x 1

Chorus Riff (Guitar 1)
Eb----------------------------------------------------------------------------------:
Bb----------------------------------------------------------------------------------:
Gb--9-9-9-9-9-9-9-9-9-9-9-9-9-9-9-9-------------------------------------------------:
Db--9-9-9-9-9-9-9-9-9-9-9-9-9-9-9-9-10-10-10-10-10-10-10-10-10-10-10-10-10-10-8--8--:
Ab--7-7-7-7-7-7-7-7-7-7-7-7-7-7-7-7-10-10-10-10-10-10-10-10-10-10-10-10-10-10-8--8--:
Eb----------------------------------8--8--8--8--8--8--8--8--8--8--8--8--8--8--6--6--:

:---------------------------------------------------------------------------|
:---------------------------------------------------------------------------|
:----------------------------------------------------------7-7-7-7-7-7-7-7--|
:--7-7-7-7-7-7-7-7-7-7-7-7-7-7-7-7-10-10-10-10-10-10-10-10-7-7-7-7-7-7-7-7--|
:--7-7-7-7-7-7-7-7-7-7-7-7-7-7-7-7-10-10-10-10-10-10-10-10-5-5-5-5-5-5-5-5--|
:--5-5-5-5-5-5-5-5-5-5-5-5-5-5-5-5-8--8--8--8--8--8--8--8-------------------| Play x 2

Chorus Riff (Guitar 2)
Eb-------12----14----12----------12----15----14-12-------12----14----12---------12----15----14-12--|
Bb----12----------------12----12----------12----------12----------------12---12----12----12--------|
Gb-------------------------------------------------------------------------------------------------|
Db-14-------14----14-------14-------14-------------14-------14----14-------14----------------------|
Ab-------------------------------------------------------------------------------------------------|
Eb-------------------------------------------------------------------------------------------------| Play x 2

Chorus Riff (Guitar 3, very quiet)
Eb--------------------------------hger----------------------------------------------------------------------|
Bb----------------------------------------------------------------------------------------------------------|
Gb--11--11--11-11-11-9--9--9-9-9-9--7--7-7-7-5--5--5-5-5-5--------------------------7--7-7-7-5--9--9-9-9-9--|
Db----------------------------------------------------------9--9-9-9-7--7--7-7-7-7--------------------------|
Ab--9---9---9--9--9--7--7--7-7-7-7--5--5-5-5-3--3--3-3-3-3--------------------------5--5-5-5-3--7--7-7-7-7--|
Eb----------------------------------------------------------7--7-7-7-5--5--5-5-5-5--------------------------|

Post-Chorus Riff
Eb--------------------------------------------------------------------------|
Bb--------------------------------------------------------------------------|
Gb--11-11--11-11--11-11--11-11--11--11--11-11--11-11--11-11--11-11--11--11--|
Db--10-10--10-10--10-10--10-10--10--10--9--9---9--9---9--9---9--9---9---9---|
Ab--9--9---9--9---9--9---9--9---9---9---7--7---7--7---7--7---7--7---7---7---|
Eb--------------------------------------------------------------------------| Play x 2

Then play Verse Riff x 2
Then play Bridge Riff x 1
Then play Chorus Riff x 2
Then play Post-Chorus Riff x 1
Then play Chorus RIff x 2
Then play Post-Chorus Riff x 4

Breakdown Riff
Eb--------------------------------------------|
Bb--------------------------------------------|
Gb-----11-9----11-9---------11-9---11-9-------|
Db--10------10------10----9------9------9-----|
Ab--------------------------------------------|
Eb--------------------------------------------| Play x 5

Eb-----------------------------------------------------------------------------|
Bb-----------------------------------------------------------------------------|
Gb-------11-----11-----11-----11-------------11---11---11---11---11---11---11--|
Db--10------9-----10------9-------10~---9~---10---9----10---9----10---9----10--|
Ab-------------------------------------------9----7----9----7----9----7----9---|
Eb-----------------------------------------------------------------------------| Play x 1
Добавлено: 24.04.2012
Другие материалы по этой песне:
  • Аккорды и текст

Страница создана 21.02.2012
http://primanota.ru/idlewild/rusty-chords.htm
Привет, Гость.
Предлагаем пройти революционный курс по гитаре.
Подарок от PrimaNota.Ru, забирай!