PrimaNota.ru - самый крупный в мире бесплатный архив песенных текстов, аккордов, табулатур и нот


Idlewild - Post Electric - таба, видео

Регистрация Запомнить меня
Войти через:  Facebook Google Twitter Vk Yandex Mail.ru

Idlewild - Post Electric - таба, видео

Печатать
Просмотров: 108
iDLEWiLD - Post-Electric
Album: Post Electric Blues
Guitarists: Rod Jones and Allan Stewart
Tuning: Eb, capo on 5th fret

www.youtube.com/user/stuart2407
www.youtube.com/watch?v=oOZQQLdpbJo

*****A LOT of time and very hard work has gone into this. Please DO NOT post this on 
other tab sites*****

Tuning notes.
At an educated guess, this song would've been recorded on a guitar tuned down one 
semitone with a capo at the 5th fret. It can be played in standard tuning with a capo
at the 4th fret, however the first way I described makes it much easier to play as 
the positioning of the notes is easier in this tuning...... make up your own mind 
which tuning to use :)

Intro

eb |-------------------------------------------|
Bb |-7b8r7b8r7---------------------------------|
Gb |-----------4-2---7-7-----------------------| play x 2
Db |-----------------------7b9r7b9r7-----------|
Ab |---------------------------------4-2---7-7-|
Eb |-------------------------------------------|

Verse 1

eb |-------------------------------------------|
Bb |-7b8r7b8r7---------------------------------|
Gb |-----------4-2---7-7-----------------------|
Db |-----------------------7b9r7b9r7-----------|
Ab |---------------------------------4-2---7-7-|
Eb |-------------------------------------------|

eb |---------------------------------------------|
Bb |-7b8r7b8r7-----------------3---3-------------|
Gb |-----------4-2---7-7---2h4---4---4-4-2---2-2-|
Db |---------------------------------------------|
Ab |---------------------------------------------|
Eb |---------------------------------------------|

eb |-------------------------------------------|
Bb |-7b8r7b8r7---------------------------------|
Gb |-----------4-2---7-7-----------------------|
Db |-----------------------7b9r7b9r7-----------|
Ab |---------------------------------4-2---7-7-|
Eb |-------------------------------------------|
 
eb |-------------------------------------------------|
Bb |-----3---3---------------------------------------|
Gb |-2h4---4---4-4-2---2-2---------------------------|
Db |-------------------------7b9r7b9r7---------------|
Ab |-----------------------------------4-2---7-7---7-|
Eb |-------------------------------------------------|

Chorus

eb |-----------------------------------------------|
Bb |-2-3-5--5-2-3-5--3-5-3-5--5/7-5/3----3-5p3-3-3-|
Gb |-2-2-2--2-2-2-2--2-2-2-2----------2--2-2---2-2-| play x 4
Db |-0-0-0--0-0-0-0--0-0-0-0----------0--0-0---0-0-|
Ab |-----------------------------------------------|
Eb |-----------------------------------------------|

Post-chorus

eb |-----------|-----------------|-----------------|-----------------|
Bb |-7-7-5-7---|-7-7-7-7-5-------|-7-7-7-7-5-------|-7-7-7-7-5-------|
Gb |-----------|-----------7-4---|-----------7-4---|-----------7-4---|
Db |-----------|-----------------|-----------------|-----------------|
Ab |-----------|-----------------|-----------------|-----------------|
Eb |-----------|-----------------|-----------------|-----------------|

Repeat the verse/chorus/post-chorus. Second time round the post-chorus is played
twice with an extra note leading into the solo:

eb |-----------|-----------------|-----------------|-----------------|
Bb |-7-7-5-7---|-7-7-7-7-5-------|-7-7-7-7-5-------|-7-7-7-7-5-------|
Gb |-----------|-----------7-4---|-----------7-4---|-----------7-4/2-|
Db |-----------|-----------------|-----------------|-----------------|
Ab |-----------|-----------------|-----------------|-----------------|
Eb |-----------|-----------------|-----------------|-----------------|

Solo
Some of the notes are hard to hear but they are all in there......

eb |-----------------------------------------------|
Bb |-----------5-------0-------------------5-----5-|
Gb |-----------------------------------------------|
Db |-2h4p2p0-----4p2h4---4p2-0h2-2h4p2p0-----4p2---|
Ab |---------0---------------------------0---------|
Eb |-----------------------------------------------|

eb |-----------------------------------------------|
Bb |-----------------5-------5-------------------5-|
Gb |-----------------------------------------------|
Db |-4p2-0h2-2h4p2p0---4h2p4---4-2-0-2-2h4p2p0-----|
Ab |-------------------------------------------0---|
Eb |-----------------------------------------------|

eb |-----------------------|---------------------------|
Bb |-5/7-7-7b8r7p5-7p5-5-5-|-2p3h2---------------------|
Gb |-----------------------|-------4-2p0-2h4p2p0-2b3r2-|
Db |-----------------------|---------------------------|
Ab |-----------------------|---------------------------|
Eb |-----------------------|---------------------------|

eb |-----------------------------------------------------|
Bb |-7b8r7b8r7b8r7-5---5---------------------------------|
Gb |-----------------7---7-6-6-4h6p4-2-2p0-2h4-2p0-2-2-2-|
Db |-----------------------------------------------------|
Ab |-----------------------------------------------------|
Eb |-----------------------------------------------------|

eb |-------------------------------------------------------|
Bb |-7b8r7b8r7b8r7-5---5-----------------------------------|
Gb |-----------------7---7-6-6-4h6p4-2-0h2-4p2-0h2-4h2-2-2-|
Db |-------------------------------------------------------|
Ab |-------------------------------------------------------|
Eb |-------------------------------------------------------|
                              
eb |---------------------------|---------------------------|----------------|
Bb |-7b8r7b8r7b8r7-5---5-------|-7b8r7b8r7b8r7-5---5-------|-7b8r7b8r7b8/10-|
Gb |-----------------7---7-6-6-|-----------------7---7-6-6-|----------------|
Db |---------------------------|---------------------------|----------------|
Ab |---------------------------|---------------------------|----------------|
Eb |---------------------------|---------------------------|----------------|

eb |--------------------------------------|-------------------------------|
Bb |-7b8r7-5-7b8r7-5--5-------------------|-7b8r7-5-----------------------|
Gb |-----------------7--7-6h7-6h7p6-------|---------7-6h7p6---6---6-------|
Db |--------------------------------9-7-7-|-----------------9---9---9-7-7-|
Ab |--------------------------------------|-------------------------------|
Eb |--------------------------------------|-------------------------------|

eb |------------------------------|---------------------------|
Bb |------------------------------|-7b8r7b8r7b8r7b8r7b8r7-5-5-|
Gb |------------------------------|---------------------------|
Db |--4h5-5-5-5-4/2-0h2-2h4p2p0-2-|---------------------------|
Ab |------------------------------|---------------------------|
Eb |------------------------------|---------------------------|
*The second bar here is a bit weird, this is the closest I could get.
Probably not spot on but it sounds fine.

eb |-------------------------------------------------------------------|
Bb |-5-7b8r7-7b8r7-7b8r7-5h7-7/8-8/10-10-12-12-12b13r12-10-12p10-10-10-|
Gb |-------------------------------------------------------------------|
Db |-------------------------------------------------------------------|
Ab |-------------------------------------------------------------------|
Eb |-------------------------------------------------------------------|

eb |-----------------------------------------------------------------------------|
Bb |-12h13p12-10-10/8-8/7-7h8-------------12-12h14-14h15-14p12-10h12-14p12-10-10-|
Gb |----------------------------9-7-6b7r6----------------------------------------|
Db |--------------------------9--------------------------------------------------|
Ab |-----------------------------------------------------------------------------|
Eb |-----------------------------------------------------------------------------|

                          NH--|
eb |---------------------|-----------------|
Bb |-8-7-8p7/5-3-2-------|-----------------|
Gb |---------------2-----|-----------------|
Db |-----------------4-7-|-----------7s9s7-|
Ab |---------------------|---7-------------|
Eb |---------------------|-7---------------|

Nothing really set in stone at this point, just play around with 7th fret harmonics and
open strings.

eb |-------------------------------------------------------|
Bb |-------5-------------------------5-5h7-7-7-7-7b8r7-5---|
Gb |-----------------------------------------------------7-|
Db |-4p2-----4h5-5-5-5-4-2-0h2-4p2-------------------------|
Ab |-----0-------------------------0-----------------------|
Eb |-------------------------------------------------------|

eb |------------------------------------------|
Bb |-----------5---7h8-8-8/10-7-7-5-5h7---5-5-|
Gb |------------------------------------4-----|
Db |-2h4p2p0----------------------------------|
Ab |---------0---0----------------------------|
Eb |------------------------------------------|


eb |----------------------------------------------|
Bb |-12-12h14-14-14-14b15r14-12-10-10h12p10-10-10-|
Gb |----------------------------------------------|
Db |----------------------------------------------|
Ab |----------------------------------------------|
Eb |----------------------------------------------|

eb |--------------------------------------------|
Bb |-8-8-7--------------------------------------|
Gb |-------9h11---9-7-6h7-6h7p6---6h7/10p7-9/11-|
Db |------------9---------------9---------------|
Ab |--------------------------------------------|
Eb |--------------------------------------------|

eb |----------------------------------------------------------------------------------|
Bb |----------------------------------------------------------------------------------|
Gb |-9h11p9----9h11-11b12r11-12/14-14b16r14-14/16-16b17r16-16b17r16-14-16b17-14-16b17-|
Db |--------11------------------------------------------------------------------------|
Ab |----------------------------------------------------------------------------------|
Eb |----------------------------------------------------------------------------------|

eb |------------------------14-15-|
Bb |15-14-15-14-15-14-15-17-17-17-|
Gb |------------------------------|
Db |------------------------------|
Ab |------------------------------|
Eb |------------------------------|

Trem pick those last 3 notes and you're done.
Добавлено: 27.07.2012
Другие материалы по этой песне:
  • Аккорды и текст

Страница создана 27.07.2012
http://primanota.ru/idlewild/post-electric-chords.htm
Привет, Гость.
Предлагаем пройти революционный курс по гитаре.
Подарок от PrimaNota.Ru, забирай!