PrimaNota.ru - самый крупный в мире бесплатный архив песенных текстов, аккордов, табулатур и нот


Idlewild - Once In Your Life - текст песни, таба, видео

Регистрация Запомнить меня
Войти через:  Facebook Google Twitter Vk Yandex Mail.ru

Idlewild - Once In Your Life - текст песни, таба, видео

Печатать
Просмотров: 100
Авторы: Colin Newton, Allan Stewart, Gareth Russell, Rod Jones, Roddy Woomble

Intro:

 / Cm      Eb       Bb         Cm         Cm          Eb      Bb          Cm
|----------------------------------3---|--------------------------------------3--|
|----------------------------------3---|--------------------------------------3--|
|-----3-------3--------------------5---|------3---------3---------------------5--|
|-------5-------5-------------3----5---|--------5---------5--------------3----5--|
|---3-----3-6-----6-------3-6---3------|--3-------3---6-----6--------3-6---3-----|
|--------------------6--6--------------|-----------------------6---6-------------|
|
|---------------------------------3----|-----------------------------------------|
|---4-------4------4----------4---4-3--|--8\6---------8--------------------------|
|---5-------3--------5------5---5------|------8---5/7-8---5-5-7-8--7\------5-----|
|---5----------------------------------|-----------------------------------------|
|---3----------------------------------|-----------------------------------------|
|--------------------------------------|-----------------------------------------|
 \



  Verse:

 /
|----|----------------------------------|--------------------------------------3\-|
|----|------------------------------3---|--------------------------------------4\-|
|----|---------3--------------------5---|-----------------3-----------------------|
|----|-----------5------------3-----5---|-------------------5------------3--------|
|----|--3--5-6-----6------3-6---3-3-----|--3------5----6------6------3-6---3-3----|
|----|---------------6--6---------------|-----------------------6--6--------------|
|
|----|----------------------------------|-----------------------------------------|
|----|----------------------------------|--8\6---------------------------------8--|
|--3-|--5-----------/8----------------8-|------8-------8--------8--7-------5---8--|
|----|--------------------------10------|---------8/10----------------------------|
|----|----------------------------------|-----------------------------------------|
|----|----------------------------------|-----------------------------------------|
 \

 /
|-----|--------------------------------------3----|-----------------------------------------|
|-----|--------------------------------------3----|-----------------------------------------|
|-----|--------------3-------------------------3--|-----------------3--------------------5--|
|-----|----------------5--------------------------|-------------------5------------------5--|
|-----|--3-----4-5-6-------6--------3-6--3-3------|--3------5----6------6------3-6---3-3----|
|-----|------------------------6--6---------------|-----------------------6--6--------------|
|
|-----|------3------------------------------------|-----------------------------------------|
|---4-|------4------------------------------------|--8\6------------------6-----------------|
|-5---|--3-5-----------5-5-5-7-8---------5------5-|------8-------8------5--------8-7-5------|
|-----|-------------------------------------------|---------8/10----------------------------|
|-----|-------------------------------------------|-----------------------------------------|
|-----|-------------------------------------------|-----------------------------------------|
 \

 /
|-----|---------------------------------3\---|------------------------------------------|
|-----|---------------------------------4\---|------------------------------------------|
|-----|-----------3--------------------------|-----------------3------------------------|
|-----|-------------5-------------3----------|-------------------5-----3-3-3-3--5-5-x-x-|
|-----|--3--3-5-6-----6-------3-6---3-3------|--3-------3-5--6------6--1-1-1-1--3-3-x-x-|
|-----|-----------------6---6----------------|------------------------------------------|
|
|-----|--------------------------------------|-----------------------------------------|
|-----|---------------------------------8----|---8\6-------------------6-6-------------|
|-5-3-|--5----3-5--------8-5----5/8-----8----|-------8-------8---5---------8-7--5------|
|-----|-----------------------------10----10-|----------8/10---------------------------|
|-----|--------------------------------------|-----------------------------------------|
|-----|--------------------------------------|-----------------------------------------|
 \


  Bridge:
 /
|------------------------|------------------------|-----------------------|-----------------------|
|------------------------|------------------------|-----------------------|-----------------------|
|---5---5------8---8--3--|--5--5--5------8-----3--|--5--5------8-8--8--3--|--5--5--5--5--8-----3--|
|---5---5--x-x-8---8--3--|--5--5--5--x-x-8-x-x-3--|--5--5--x-x-8-8--8--3--|--5--5--5--5--8--x--3--|
|---3---3--x-x-6---6--1--|--3--3--3--x-x-6-x-x-1--|--3--3--x-x-6-6--6--1--|--3--3--3--3--6--x--1--|
|------------------------|------------------------|-----------------------|-----------------------|
|
|------------------------|------------------------|-----------------------|-----------------------|
|------------------------|------------------------|-----------------------|-----------------------|
|---12--12-x-x-10-----7--|--12-12-12-x-x-12----7--|--12-12-x-x---12-10-7--|--12-12-12----12-10-7--|
|---10--10-x-x-8------8--|--10-10-10-x-x-11----8--|--10-11-x-x---11-8--8--|--10-11-10----11-8--8--|
|------------------------|------------------------|-----------------------|-----------------------|
|------------------------|------------------------|-----------------------|-----------------------|
 \


  Verse:
 /
|---------------------------------------3---|---------------------------------------3\----------|
|---------------------------------------3---|---------------------------------------4\----------|
|---------3--------3--------------------5---|--------3---------3--------------------------------|
|-----------5--------5------------------5---|----------5---------5------------------------------|
|--3----------3--6-----6-------3-6--3-3-----|--3---------3---6-----6-------3-6--3-3-------------|
|-------------------------6--6--------------|-------------------------6--6----------------------|
|
|-------------------------------------------|---------------------------------------------------|
|---------11--------------------------------|--------11------11---------------------------------|
|--10-12---------10-------------------------|--10-12---------10---------------------------------|
|-------------------------13-12-----10---10-|-------------------------12-13-----10----10-10-12--|
|-------------------------------------------|---------------------------------------------------|
|-------------------------------------------|---------------------------------------------------|
 \


 /
|----------------------------------------------------|----------------------------------------------------|
|---------------------------------------------3------|----------------------------------------------------|
|-----------------3---------------------------5------|--------3---------3---------------------------------|
|-------------------5------------------3------5------|----------5---------5-----3-3-3-3--5---5---x---x----|
|--3--------4-5-6-----6-----------3-6-----3-3--------|--3----------5--6------6--1-1-1-1--3---3---x---x----|
|---------------------------6---6--------------------|----------------------------------------------------|
|
|----------------------------------------------------|----------------------------------------------------|
|--------11------------------------------------------|--------11------8---------8---6----6-7-6-7-6-7-6\---|
|--10-12----------12--12-12-10------10-12-10---10-10-|--10-12---------8---------7---7---------------------|
|----------------------------------------------------|----------------------------------------------------|
|----------------------------------------------------|----------------------------------------------------|
|----------------------------------------------------|----------------------------------------------------|
 \

  Bridge:
 /
|------------------------|------------------------|-----------------------|-----------------------|
|------------------------|------------------------|-----------------------|-----------------------|
|---5---5------8---8--3--|--5--5--5------8-----3--|--5--5------8-8--8--3--|--5--5--5--5--8-----3--|
|---5---5--x-x-8---8--3--|--5--5--5--x-x-8-x-x-3--|--5--5--x-x-8-8--8--3--|--5--5--5--5--8--x--3--|
|---3---3--x-x-6---6--1--|--3--3--3--x-x-6-x-x-1--|--3--3--x-x-6-6--6--1--|--3--3--3--3--6--x--1--|
|------------------------|------------------------|-----------------------|-----------------------|
|
|------------------------|------------------------|-----------------------|-----------------------|
|------------------------|------------------------|-----------------------|-----------------------|
|---12--12-x-x-10-----7--|--12-12-12-x-x-12----7--|--12-12-x-x---12-10-7--|--12-12-12----12-10-7--|
|---10--10-x-x-8------8--|--10-10-10-x-x-11----8--|--10-11-x-x---11-8--8--|--10-11-10----11-8--8--|
|------------------------|------------------------|-----------------------|-----------------------|
|------------------------|------------------------|-----------------------|-----------------------|
 \
Добавлено: 26.06.2012
Другие материалы по этой песне:
  • Аккорды и текст

Страница создана 14.06.2012
http://primanota.ru/idlewild/once-in-your-life-chords.htm
Привет, Гость.
Предлагаем пройти революционный курс по гитаре.
Подарок от PrimaNota.Ru, забирай!