PrimaNota.ru - самый крупный в мире бесплатный архив песенных текстов, аккордов, табулатур и нот


Idlewild - Nothing That I Know - таба, видео

Регистрация Запомнить меня
Войти через:  Facebook Google Twitter Vk Yandex Mail.ru

Idlewild - Nothing That I Know - таба, видео

Печатать
Просмотров: 91
iDLEWiLD: The nothing that I know
American English Bside
eMail: squire82@hotmail.co.uk

Standard Tuning
Chords used
	
	E A D G B e
F#5     2 4 4 x x x
G#5     4 6 6 x x x
B5      x 2 4 4 x x
C#5     x 4 6 6 x x


INTRO: not 100%, but it fits

e|---------------------------------|
B|*-------6-------------------7---*|
G|----6-----6---------6---6--------|
D|--6---6-----6-(6)-6---6---6------|
A|*-------------------------------*|
E|---------------------------------|

VERSEs

Guitar 1

e|-------------------------------------------|--------------------------------|
B|*----7-6--7-6-------------7---------------*|----7-6-7-6--------7-6-7-6------|
G|---------------8-(8)---------8/11-----11---|-------------6--------------6---|
D|--6--------------------8-----------11------|-6--------------6---------------|
A|*-----------------------------------------*|--------------------------------|
E|-------------------------------------------|--------------------------------|

Guitar 2

e|-----------------------------------|---------------------------|
B|*-7-(7)--7-6----------7--------7--*|-7-(7)-7-6----7-(7)-7-6----|
G|--------------8-(8)-8---8--6-6-----|-----------8------------8--|
D|-----------------------------------|---------------------------|
A|*---------------------------------*|---------------------------|
E|-----------------------------------|---------------------------|

BRIDGE

Guitar 1

|B5  |B5  |F#5 |F#5 |C#5 |C#5 |B5  |B5  |

Guitar 2

  repeat as nec
e|-------------------|-----------------|
B|*-9/11-(11)--9--7-*|-7---7--7--7--7--|
G|-------------------|---6--6--6--6--6-|
D|-------------------|-----------------|
A|*-----------------*|-----------------|
E|-------------------|-----------------|


CHORUS

Guitar 1


Guitar 2

e|------------------------------------------------------------------------------|
B|-12----12----12----12----------11----11----11----11----------9----9----9----9-|
G|----11----11----11----11-(11)-----11----11----11-----11-(11)---11---11---11---|
D|------------------------------------------------------------------------------|
A|------------------------------------------------------------------------------|
E|------------------------------------------------------------------------------|

e|--------------------------------------------------------------------------------|
B|---------11-12----12----12----12---------11----11----11----11---------9---9---9-|
G|-11-(11)-------11----11----11----11-(11)----11----11----11----11-(11)---8---8---|
D|--------------------------------------------------------------------------------|
A|--------------------------------------------------------------------------------|
E|--------------------------------------------------------------------------------|

e|----------------|
B|---9----9-------|
G|-8---8----8-(8)-|
D|----------------|
A|----------------|
E|----------------|


OUTRO


Same as bridge, except guitar 1 starts to play the following towards the end.

Repeat to fade

    
e|-----------------------------|------------------------------------------------------------|
B|*-11-(11)-11/14-11--7--9--7-*|-11-(11)-11/14-11--7--9--7-(7)-9-7-9-7-(7)-9-7-9-11-9-7-(7)-|
G|-----------------------------|------------------------------------------------------------|
D|---REPEAT TWICE--------------|------------------------------------------------------------|
A|*---------------------------*|------------------------------------------------------------|
E|-----------------------------|------------------------------------------------------------|


Song Structure

Intro
Verse
Pre-Chorus
Chorus
Intro
Verse
Pre-Chorus
Chorus
Pre-Chrous; with outro fig
Добавлено: 27.06.2012
Другие материалы по этой песне:
  • Аккорды и текст

Страница создана 27.06.2012
http://primanota.ru/idlewild/nothing-that-i-know-chords.htm
Привет, Гость.
Предлагаем пройти революционный курс по гитаре.
Подарок от PrimaNota.Ru, забирай!