PrimaNota.ru - самый крупный в мире бесплатный архив песенных текстов, аккордов, табулатур и нот


Idlewild - Mistake Pegeant - таба, видео

Регистрация Запомнить меня
Войти через:  Facebook Google Twitter Vk Yandex Mail.ru

Idlewild - Mistake Pegeant - таба, видео

Печатать
Просмотров: 89

iDLEWiLD
Mistake Pageant

Guitar tuned down half a step (Eb, Ab, Db, Gb, Bb, Eb)

Main Riff
Eb-------------------------------|
Bb-----5------5-----5-----5------|
Gb-------------------------------|
Db--------------------------7----|
Ab--5----5-5---------------------|
Eb---------------5----5-5-----0--| Play x 6

Bridge Riff A
It was a mistake pageant...
Eb---------------------------------|----------------------------------|
Bb---------------------------------|----------------------------------|
Gb---------------------------------|-7-7-7-7-7-7-7-7------------------|
Db------0-----0-----7-7-7-7-7-9-7--|-7-7-7-7-7-7-7-7-2-2-2-2-2-2-2-2--|
Ab----4-----4-----4-7-7-7-7-7-7-7--|-5-5-5-5-5-5-5-5-2-2-2-2-2-2-2-2--|
Eb--2-----2-----2---5-5-5-5-5-5-5--|-----------------0-0-0-0-0-0-0-0--| Play x 1
   x 3                               x 1

Then play Main Riff x 4

Bridge Riff B
Eb---------------------------------|----------------------------------|
Bb---------------------------------|----------------------------------|
Gb---------------------------------|-7-7-7-7-7-7-7-7-9-9-9-9-9-9-9-9--|
Db------0-----0-----7-7-7-7-7-9-7--|-7-7-7-7-7-7-7-7-9-9-9-9-9-9-9-9--|
Ab----4-----4-----4-7-7-7-7-7-7-7--|-5-5-5-5-5-5-5-5-7-7-7-7-7-7-7-7--|
Eb--2-----2-----2---5-5-5-5-5-5-5--|----------------------------------| Play x 1
   x 3                               x 1

Chorus Riff
Eb-------------------------------------|
Bb-------------------------------------|
Gb-----------9--9---------------6-7-9--|
Db--7--7-x-x-9--9-x-x-4--4-x-x--6-7-9--|
Ab--7--7-x-x-7--7-x-x-4--4-x-x--4-5-7--|
Eb--5--5-x-x----------2--2-x-x---------| Play x 4

Verse Riff A (Notes in brackets same as Main Riff, however only played by bass)
Eb-------------------------------|
Bb-----5------5-----5-----5------|
Gb-------------------------------|
Db--------------------------7----|
Ab--(5)--(5)(5)------------------|
Eb--------------(5)--(5)(5)---0--| Play x 4

Then play Bridge Riff B x 4
Then play Chorus Riff x 4

Break Riff
Eb--------------------4----4--|
Bb--5--5-7--5-7--5--5----5----|
Gb----------------------------| Play x 4

Then play Chorus Riff x 8
End on:
Db--7~--|
Ab--7~--|
Eb--5~--|
Добавлено: 01.04.2012
Другие материалы по этой песне:
  • Аккорды и текст

Страница создана 01.04.2012
http://primanota.ru/idlewild/mistake-pegeant-chords.htm
Привет, Гость.
Предлагаем пройти революционный курс по гитаре.
Подарок от PrimaNota.Ru, забирай!