PrimaNota.ru - самый крупный в мире бесплатный архив песенных текстов, аккордов, табулатур и нот


Idlewild - In Remote Part - Scottish Fiction - аккорды и текст, таба, бас-таба, видео

Регистрация Запомнить меня
Войти через:  Facebook Google Twitter Vk Yandex Mail.ru

Idlewild - In Remote Part - Scottish Fiction - аккорды и текст, таба, бас-таба, видео

Печатать
Просмотров: 191
In Remote Part - Scottish Fiction
Idlewild
This is done with two guitars, but if you want to do it with one then read on...
 
Verse  (Play 6 times)

    D#m        C#
E|--------------------------------------------------|
B|-------7----------6-----------4-6-6h7p6-4-6--| can be altered by 
G|-------------6-----------------------------------| removing hammer ons and 
D|--8-8----------6-------4-4--4--6--6-h8p6-4--6---| pull offs near end of 
A|--6------6/--4------4/--2-------------------------| verse
E|--------------------------------------------------|
           .          .

 = Note picked with middle finger to produce clean tone
/ = Note is deadened as soon as it is played, sliding down the 
.   fretboard for slight drop in pitch


Bridge 1

    F#
E|------6---6---4---------6---6---4----|
B|-------------------------------------|
G|----6----------(4)----6-----------4--|
D|--4-----4---4--(4)--4-----4---4------|
A|-------------------------------------|
E|-------------------------------------|

(4) = On the recording the F# is played, but it is much easier
(4)   (and in my opinion sounds much better) to play the C#
      as is done the following time

Bridge 2

    F#
E|------6---6---4---------6---6---4----|
B|-------------------------------------|
G|----6-----------------6--------------|
D|--4-----------------4----------------|
A|-------------------------------------|
E|-------------------------------------|


Chorus 1

    F#      D#m       B         F#      D#m     B
E|------6-------2----------------------------6-------2----------------------|
B|-----(7)-----(4)--------4---4---2---------(7)-----(4)--------4---4---2----|
G|----6-------3---------------------4------6-------3---------------------4--|
D|--4-------1-------1---4----------------4-------1-------3---4--------------|
A|--------------------2-----2---2--------------------------2-----2---2------|
E|--------------------------------------------------------------------------|

    F#      D#m       B         F#      D#m       B
E|------6-------2----------------------------6-------2----------------------|
B|-----(7)-----(4)--------4---4---2---------(7)-----(4)---------------------|
G|----6-------3---------------------4------6-------3------------------------|
D|--4-------1-------3---4----------------4-------1--------------------------|
A|--------------------2-----2---2--------------------------2--let ring------|
E|--------------------------------------------------------------------------|

Chorus 2 (Play 7 times)

    F#      Ebm       B
E|------6-------2----------------------|
B|-----(7)-----(4)--------4---4---2----|
G|----6-------3---------------------4--|
D|--4-------1-------1---4--------------|
A|--------------------2----------------|
E|-------------------------------------|

On 8th time:

    F#      Ebm       B
E|------6-------2---------2---2---2--------6--------2---------2---2---2-2--|
B|-----(7)-----(4)--------4---4---2-------(7)------(4)--------4---4---4-4--|
G|----6-------3---------------------4----6--------3------------------------|
D|--4-------1-------1---4--------------4--------1-------1---4--------------|
A|--------------------2-----------------------------------2----------------|
E|-------------------------------------------------------------------------|

(Bracketed Notes) = Optional root notes can be added for harmony

Ending

    D#m  F#   B    Bsus2  B    Bsus2  B
E|--6----9----2----2------2----2------2--|
B|--7----11---4----2------4----2------4--|
G|--8----11---4----4------4----4------4--|
D|--8----11---4----4------4----4------4--|
A|--6----9----2----2------2----2------2--|
E|---------------------------------------|
Добавлено: 14.10.2013
Другие материалы по этой песне:

Страница создана 30.03.2012
http://primanota.ru/idlewild/in-remote-part-scottish-fiction-chords.htm
Привет, Гость.
Предлагаем пройти революционный курс по гитаре.
Подарок от PrimaNota.Ru, забирай!