PrimaNota.ru - самый крупный в мире бесплатный архив песенных текстов, аккордов, табулатур и нот


Idlewild - I Live In A Hiding Place - таба, видео

Регистрация Запомнить меня
Войти через:  Facebook Google Twitter Vk Yandex Mail.ru

Idlewild - I Live In A Hiding Place - таба, видео

Печатать
Просмотров: 118
Уроки эстрадного вокала в Санкт-Петербурге
IDLEWILD
"I Live In A Hiding Place"

Transcribed by Nayaab Islam
(Email comments to: nabsta@hotmail.com)

Intro/Verse:
E|-----------------------------------------------
B|-----------------------------------------------
G|-----------------------------------------------
D|-------4-----4--4-----4-----6--4-----6--4-----4
A|----4-----2--------1-----4--------4--------4---
E|-2---------------------------------------------

Chorus:
E|-----------------------------------------------
B|-----------------------------------------------
G|-----------------------------------------------
D|----4--4-----6--4-----4-----8--------8---------
A|-2--------4--------4-----6-----9--------9-----9
E|----------------------------------7--------7---

Chorus (2nd Guitar):
E|-----------------------------------------------
B|-----------------------------------------------
G|-----------------------------------------------
D|-11--9--8--6--4--6--6--6h8-----------6--6------
A|-9---9--8--4--4-------------9--6--9------------
E|-----------------------------------------------
     
Добавлено: 08.08.2013
Другие материалы по этой песне:
  • Аккорды и текст

Страница создана 08.08.2013
http://primanota.ru/idlewild/i-live-in-a-hiding-place-chords.htm
Привет, Гость.
Предлагаем пройти революционный курс по гитаре.
Подарок от PrimaNota.Ru, забирай!