PrimaNota.ru - самый крупный в мире бесплатный архив песенных текстов, аккордов, табулатур и нот


Idiot Pilot - Spark Plug - текст песни, таба, видео

Регистрация Запомнить меня
Войти через:  Facebook Google Twitter Vk Yandex Mail.ru

Idiot Pilot - Spark Plug - текст песни, таба, видео

Печатать
Просмотров: 183
-------------------------------------------------------------------------------
                             Spark Plug - Idiotpilot
-------------------------------------------------------------------------------
Tabbed by: Nineball
Email: n1n384ll (at) yahoo (dotto) com

Can play this song in standard but drop D might be easier if you're having a
hard time stretching out your fingers for the first chord. Both versions are
in this file :p Strum pattern is a bit . . . difficult to tab out and I highly
suggest just listening to the song. Of course, you know the song... that's why
you refer to a tab to learn to play it mirite?

The song opens with acoustic, but then an electric with heavy distortion picks
it up and continues where the acoustic left off and keeps going through out 
the song... What a run on sentence; disgusting.

Tuning: Drop D

e|---------------------------------------------------------------------------|
B|---------------------------------------------------------------------------|
G|---------------------------------------------------------------------------|
D|---7-7-777-7777---4-4-444-4444---5-5-555-5555---7-7-777-7777---------------|
A|---5-5-555-5555---5-5-555-5555---5-5-555-5555---x-x-xxx-xxxx---------------|
D|---5-5-555-5555---x-x-xxx-xxxx---5-5-555-5555---7-7-777-7777---------------|

Tuning: Standard

e|---------------------------------------------------------------------------|
B|---------------------------------------------------------------------------|
G|---------------------------------------------------------------------------|
D|---7-7-777-7777---4-4-444-4444---5-5-555-5555---7-7-777-7777---------------|
A|---5-5-555-5555---5-5-555-5555---5-5-555-5555---x-x-xxx-xxxx---------------|
E|---3-3-333-3333---x-x-xxx-xxxx---3-3-333-3333---5-5-555-5555---------------|

Now that I think of it... the last octave chord should have a third note...
5 on A so it's like...

Tuning: Drop D

e|---------------------------------------------------------------------------|
B|---------------------------------------------------------------------------|
G|---------------------------------------------------------------------------|
D|---7-7-777-7777---4-4-444-4444---5-5-555-5555---7-7-777-7777---------------|
A|---5-5-555-5555---5-5-555-5555---5-5-555-5555---5-5-555-5555---------------|
D|---5-5-555-5555---x-x-xxx-xxxx---5-5-555-5555---7-7-777-7777---------------|

Tuning: Standard

e|---------------------------------------------------------------------------|
B|---------------------------------------------------------------------------|
G|---------------------------------------------------------------------------|
D|---7-7-777-7777---4-4-444-4444---5-5-555-5555---7-7-777-7777---------------|
A|---5-5-555-5555---5-5-555-5555---5-5-555-5555---5-5-555-5555---------------|
E|---3-3-333-3333---x-x-xxx-xxxx---3-3-333-3333---5-5-555-5555---------------|

Meh, who knows. Comments/Suggestions/Corrections/Fire/Tomatoes welcome.
I love my anti oxidant fruits.

~9

| /  slide up
| \  slide down
| h  hammer-on
| p  pull-off
| ~  vibrato
| +  harmonic
| x  Mute note
===============================================================================
Добавлено: 29.07.2012
Другие материалы по этой песне:
  • Аккорды и текст

Страница создана 17.06.2012
http://primanota.ru/idiot-pilot/spark-plug-chords.htm
Привет, Гость.
Предлагаем пройти революционный курс по гитаре.
Подарок от PrimaNota.Ru, забирай!