PrimaNota.ru - самый крупный в мире бесплатный архив песенных текстов, аккордов, табулатур и нот


Idiot Pilot - Retina And The Sky - текст песни, таба, бас-таба, видео

Регистрация Запомнить меня
Войти через:  Facebook Google Twitter Vk Yandex Mail.ru

Idiot Pilot - Retina And The Sky - текст песни, таба, бас-таба, видео

Печатать
Просмотров: 251
Guitar 1: 

Play Throughout Intro/Chorus

E|-----10-------10-------|
B|-7-8------7-8------7-8-|
G|-----------------------|
D|-----------------------|
A|-----------------------|
E|-----------------------|

                              
Chorus:
E|--------------------------------|Play 1 Time Then  |----------------------|
B|--------------------------------|                  |----------------------|
G|--2------14-------11-----9------|                  |-2-------7------6-----|
D|--x-X6---x--X8----x--X4--x-X10--|                  |-x-X10---x-X5---x-X12-|
A|--0------12-------9------7------|                  |-0-------5------4-----|
E|--------------------------------|                  |----------------------|

Then

E|--------------------------------|Play 1 Time Then End With |-------|
B|--------------------------------|                          |-------|
G|--2------14-------11-----9------|                          |-2-----|
D|--x-X6---x--X8----x--X4--x-X10--|                          |-x-X12-|
A|--0------12-------9------7------|                          |-0-----|
E|--------------------------------|                          |-------|




_____________________________________________________________________________
Guitar 2:

Chorus:
E|--------------------------------|Play Once |-----------------------------|
B|--------------------------------|     Then:|-----------------------------|
G|--2------14-------11-----9------|          |-2-------14------9-----6-----|
D|--x-X6---x--X8----x--X4--x-X10--|          |-x-X16---x-X8----x-X6--x-X10-|
A|--0------12-------9------7------|          |-0-------12------7-----4-----|
E|--------------------------------|          |-----------------------------|

Then

E|--------------------------------|Play Once Then End With  |-------|
B|--------------------------------|                         |-------|
G|--2------14-------11-----9------|                         |-2-----|
D|--x-X6---x--X8----x--X4--x-X10--|                         |-x-X12-|
A|--0------12-------9------7------|                         |-0-----|
E|--------------------------------|                         |-------|

_____________________________________________________

Verse:
E|-------------------------------------17-15-14-12|
B|-15-14-15-----15-14-15-----15-14-15-------------|
G|------------------------------------------------|
D|-----------16-----------16----------------------|
A|------------------------------------------------|
E|------------------------------------------------|
Добавлено: 10.03.2012
Другие материалы по этой песне:

Страница создана 10.03.2012
http://primanota.ru/idiot-pilot/retina-and-the-sky-chords.htm
Привет, Гость.
Предлагаем пройти революционный курс по гитаре.
Подарок от PrimaNota.Ru, забирай!