PrimaNota.ru - самый крупный в мире бесплатный архив песенных текстов, аккордов, табулатур и нот


Idaho - Happy Times - таба, видео

Регистрация Запомнить меня
Войти через:  Facebook Google Twitter Vk Yandex Mail.ru

Idaho - Happy Times - таба, видео

Печатать
Просмотров: 78
-------------------------------------------------------------------------------
                             Happy Times - Idaho
-------------------------------------------------------------------------------
First time tabbing anything. I apologize if it's not very good.

Tuning: Standard
~ = ring out

e|----------------------------2~~~~---2-0--------------------------------------|
B|----------------------------0~~~~---0-0-3-2~~~~------------------------------|
G|----7~~~~-----6~~~~---------0~~~~---0-0-0-0~~~~------------------------------|
D|----9~~~~-----0~~~~---------------------0-0~~~~------------------------------|
A|----7~~~~-----0~~~~----------------------------------------------------------|
E|--0~~~----0-7~~~~---7~~-5-3~~~----3~~~~~~~~~~~-------------------------------|

e|----------------------------2~~~~---5~~--3~~---------------------------------|
B|----------------------------0~~~~---0~~--0~~--3-2~~~~------------------------|
G|----7~~~~-----6~~~~---------0~~~~---0~~--0~~--0-0~~~~------------------------|
D|----9~~~~-----0~~~~---------------------------0-0~~~~------------------------|
A|----7~~~~-----0~~~~----------------------------------------------------------|
E|--0~~~----0-7~~~~---7~~-5-3~~~----3~~~~~~~~~~~-------------------------------|



************************************
Добавлено: 14.06.2016
Другие материалы по этой песне:
  • Аккорды и текст

Страница создана 14.06.2016
http://primanota.ru/idaho/happy-times-chords.htm
Привет, Гость.
Предлагаем пройти революционный курс по гитаре.
Подарок от PrimaNota.Ru, забирай!