PrimaNota.ru - самый крупный в мире бесплатный архив песенных текстов, аккордов, табулатур и нот


Idaho - Forever - таба, видео

Регистрация Запомнить меня
Войти через:  Facebook Google Twitter Vk Yandex Mail.ru

Idaho - Forever - таба, видео

Печатать
Просмотров: 78
-------------------------------------------------------------------------------
                             Forever - Idaho
-------------------------------------------------------------------------------
Tabbed by: K 

Tuning: Half-step Down

This is more of an outline of the basic layout of the song rather than a 100% correct tab. 
Most of the chords will sound off and wrong, especially in the chorus, but you 
have to play with the distortion and feedback a little to get the right sound. 
Most of the song is the same throughout, with alterations here and there; 
experiment with what's here to figure it out. 
Can't be bothered to figure out the additional "solo" part starting after 4:00.
 
 Intro/Verse     
e|-----5h8-8-6~-----------8-5~---------5-5---------5-5---------3~~///--------|
B|-----5---5-6~--------/5---5~---------6-6--6~-----6-6--6~-------------------|
G|----7---------------------------------------------------------2~///--------| 
D|(0)--------------(0)----------------------8~----------8~-------------------| 
A|--------------------------------(1)----------------------------------------|
E|---------------------------------------------------------------------------|

 Sample altered verse portion
e|--8-8-6~-----8-8-6--5-5h6p5------------------------------------------------|
B|--5-5-6~-----5-5-6----------6\\--------------------------------------------|
G|---------------------------------------------------------------------------| 
D|---------------------------------------------------------------------------|
A|---------------------------------------------------------------------------|
E|---------------------------------------------------------------------------|
                                     |---1---|   |--2--|
e|-1-----------------------------------------------------------------------------|
B|------------------------1~~~~~-------5h6~~~------5~~~--------------------------|
G|--2----------------------3~~~~-------------------------------------------------|   Chorus
D|0----------------------2~~~~~~------0~~~~~~-----3-3~~--------------------------|(Repeats twice,
A|---3~~~~~~~~~~~----------------------------------------------------------------|play with ending
E|-------------------------------------------------------------------------------| 1 first, then
                                                                                  ending 2)

/   = Slide up (to)
\   = Slide down (from)
(1) = Optional note
6~~ = Let ring
Добавлено: 06.08.2013
Вам также может быть интересно:
Другие материалы по этой песне:
  • Аккорды и текст

Страница создана 06.08.2013
http://primanota.ru/idaho/forever-chords.htm
Привет, Гость.
Предлагаем пройти революционный курс по гитаре.
Подарок от PrimaNota.Ru, забирай!