PrimaNota.ru - самый крупный в мире бесплатный архив песенных текстов, аккордов, табулатур и нот


Icon For Hire - Nerves - таба, видео

Регистрация Запомнить меня
Войти через:  Facebook Google Twitter Vk Yandex Mail.ru

Icon For Hire - Nerves - таба, видео

Печатать
Просмотров: 247
-------------------------------------------------------------------------------
                             NERVES - Icon For Hire
-------------------------------------------------------------------------------
Tabbed by: Kiera
E-mail: evanescenceguitarist@yahoo.com

Tuning: Drop D

*There are some riffs that aren't actual guitar but it's something to 
play along with*

Verse x4
e|----------------------|
B|----------------------|
G|----------------------|
D|----------5-----------|
A|-2---x----3----0------|
D|-2---x---------0------|


Pre-Chorus Break
e|-------------------------------------|
B|-------------------------------------|
G|-------------------------------------|
D|-5-------4---7-----------------------|
A|-3-------2---5-----------------------|
D|------------------12-12-12-12-12-12--|


Chorus (Riff 1 x2, Riff 2 x1, Riff 1 x1)
Riff 1
e|-------------------------------------------------------------------|
B|-------------------------------------------------------------------|
G|-------------------------------------------------------------------|
D|-------------------------------------------------------------------|
A|--2--2--2--2--5--5--5--5--7--7--7--7--3-3-3-3-3-3-2-2-2-2-2-2------|
D|--2--2--2--2--5--5--5--5--7--7--7--7-------------------------------|

Riff 2
e|-------------------------------------------------------|
B|-------------------------------------------------------|
G|-------------------------------------------------------|
D|-------------------------------------------------------|
A|-2----2--2--5----5--5--0----0--0--3-3-3-3-3-3-2~\------|
D|-2----2--2--5----5--5--0----0--0-----------------------|


Verse 2
Riff 1 x2
e|---------------------------------------|
B|---------------------------------------|
G|---------------------------------------|
D|---------------------------------------|
A|-2--x-x--x-x-x--2----------------------|
D|-2--x-x--x-x-x--2----9h10p9--7h9p7-----|


Verse variation
e|-----------------------------------------------------------------------|
B|-----------------------------------------------------------------------|
G|----------------------------/12----------------------------------------|
D|--------5--------------5---------12br---------------------------5------|
A|-2---x--3---0---2---x--3----------------------------------------3---0--|
D|-2---x------0---2---x-------------------2-2-2-2-2-2-2-2-2-2-2-2-----0--|

e|--------------------------------------------|
B|--------------------------------------------|
G|------------------------------/12-----------|
D|-------------------------5----------12br----|
A|-------------------------3------------------|
D|-2-2-2-2-2-2-2-2-2-2-2-2--------------------|


Pre-Chorus Break
natural harmonics from 12 to 4 roughly as shown here)
e|--------------------------------------+-+-4-4----------------------|
B|----------------------------+-+-+-+-+-5-5-4-4----------------------|
G|----------------------+-+-+-8-7-7-6-6-5-5-+-+-)------(+-+-+-+-+-+)-|
D|-5-(+--+--+--+--+--+--9-9-8-8-7-7-6-6-----------------7-7-7-7-7-7--|
A|-3--12-12-11-11-10-10-9-9-8----------------------4--4-7-7-7-7-7-7--|
D|----12-12-11-11-10-10----------------------------4--4--------------|


Chorus

Verse 2

Verse


Chorus
e|-----------------------------------------------|
B|-----------------------------------------------|
G|-----------------------------------------------|
D|-----------------------------------------------|
A|-----------7\------3-3-3-3-3-3-2-2-2-2-2-2-----|
D|-----------7\----------------------------------|


Chorus (Riff 1 x1, Riff 2 x1, Riff 1 x1)


Outro
e|---------------------------------------------|
B|---------------------------------------------|
G|---------------------------------------------|
D|-------------------------5-------4-5-4-------|
A|-3-3-3-3-3-3-2-2-2-2-2-2-3-------2-3-2-5-2---|
D|---------------------------------------5-2---|
PM ___________


Thanks for looking!
more to come from this album :D
also check out my guitar cover of this song :)
http://www.youtube.com/watch?v=IOQSlTz_Jzg

************************************

| /   slide up
| \   slide down
| h   hammer-on
| p   pull-off
| ~   vibrato
| +   harmonic
| x   Mute note
| b   Bend
| pb  Pre-bend
| br  Bend release
| pbr Pre-bend release
| brb Bend release bend

************************************
Добавлено: 11.11.2013
Другие материалы по этой песне:
  • Аккорды и текст

Страница создана 11.11.2013
http://primanota.ru/icon-for-hire/nerves-chords.htm
Привет, Гость.
Предлагаем пройти революционный курс по гитаре.
Подарок от PrimaNota.Ru, забирай!