PrimaNota.ru - самый крупный в мире бесплатный архив песенных текстов, аккордов, табулатур и нот


Icon For Hire - Counting On Hearts - таба, видео

Регистрация Запомнить меня
Войти через:  Facebook Google Twitter Vk Yandex Mail.ru

Icon For Hire - Counting On Hearts - таба, видео

Печатать
Просмотров: 147
-------------------------------------------------------------------------------
                             COUNTING ON HEARTS - Icon For Hire
-------------------------------------------------------------------------------
Tabbed by: Kiera
E-mail: evanescenceguitarist@yahoo.com

Tuning: Drop C

Intro: keys transcribed to guitar for the hell of it
D|-------10-13--------10-13----10-13-17-------10-13-----10-13----13-17------|
A|--------------------------------------------------------------------------|
F|-7---7--------7---7--------7-----------7-7--------7-7--------7------------|
c|--------------------------------------------------------------------------|
G|--------------------------------------------------------------------------|
C|--------------------------------------------------------------------------|

Riff 1: Guitar comes in
  x2                                    after repeats
D|-------------------------------------|--------|
A|-------------------------------------|--------|
F|-------------------------------------|--------|
c|-------------------------------------|--------|
G|-0--x-----------0-1--0-0--x----------|-0--x---|
C|-0--x--1-0--0-1------0-0--x----------|-0--x---|


Intro: keys

Riff 2: Guitar comes back
D|-----------------------------------------------------------------|
A|-----------------------------------------------------------------|
F|-----------------------------------------------------------------|
c|--------------------------------------------0--------------------|
G|-0--x-----------0-1--0-0--x-----0--x----------3-1---0-0--x-------|
C|-0--x--1-0--0-1------0-0--x-----0--x--0-1-0-------1-0-0--x-------|


Break

Chorus (no actual guitar in song, but here's the chords anyways)
x2
D|----------------------|
A|----------------------|
F|----------------------|
c|----------------------|
G|-0----5----8----7-----|
C|-0----5----8----7-----|


Riff 2

Break (couple of chords)
D|-----------------------------------------|
A|-----------------------------------------|
F|-----------------------------------------|
c|-----------------------------------------|
G|-0--x-----------------0--x---------------|
C|-0--x-----------------0--x---------------|

Riff 2

Break 2 (in the background)
D|-------------------------------|
A|-------------------------------|
F|-10-(x8)--14-(x8)--17-(x8)-----|
c|-8--------12-------15----------|
G|-------------------------------|
C|-------------------------------|


Chorus x2

Riff 2

Bridge (a good amount of delay and clean)
  x3                                           after repeats
D|--------------------------------------------|----------------------|
A|--------------------------------------------|----------------------|
F|----------14-14-14-------------14-14-14-----|-------14-14-14-------|
c|-10-10-10-12-12-12-10-10-7-7-7-12-12-12-7-7-|-5-5-5-12-12-12-5-5---|
G|-8--8--8-----------8--8--5-5-5----------5-5-|-3-3-3----------3-3---|
C|--------------------------------------------|----------------------|

Distortion back on
D|------------------------------------|
A|------------------------------------|
F|--------------------17-17-17-17-----|
c|--------------------15-15-15-15-----|
G|-7---7-7---7---7-7------------------|
C|-7---7-7---7---7-7------------------|


Chorus x4

Riff 2

END

thanks for looking, more Icon For Hire to come
especially from the new album

If you have any requests for Icon tabs, feel free to comment on my profile
or this tab, and I'll make that song a priority.
Otherwise, I'll be focusing on this album :)


************************************

| /   slide up
| \   slide down
| h   hammer-on
| p   pull-off
| ~   vibrato
| +   harmonic
| x   Mute note
| b   Bend
| pb  Pre-bend
| br  Bend release
| pbr Pre-bend release
| brb Bend release bend

************************************
Добавлено: 13.01.2014
Другие материалы по этой песне:
  • Аккорды и текст

Страница создана 13.01.2014
http://primanota.ru/icon-for-hire/counting-on-hearts-chords.htm
Привет, Гость.
Предлагаем пройти революционный курс по гитаре.
Подарок от PrimaNota.Ru, забирай!