PrimaNota.ru - самый крупный в мире бесплатный архив песенных текстов, аккордов, табулатур и нот


Ichiko Aoba - Tooi Akogare - аккорды и текст, видео

Регистрация Запомнить меня
Войти через:  Facebook Google Twitter Vk Yandex Mail.ru

Ichiko Aoba - Tooi Akogare - аккорды и текст, видео

Печатать
Просмотров: 133
Tooi Akogare
Ichiko Aoba
-----------------------------------------------------------------------------
                         Tooi Akogare - Ichiko Aoba
-----------------------------------------------------------------------------
(Official Website - http://www.ichikoaoba.info/)
Tabbed by: Nick Sklias
Email: Love.sklias@gmail.com

Tuning: Standard (capo on 1st fret)

Intro:

Gadd9  Em7  Am Asus4   Dsus4 D   

Verse:

Gadd9        Em7            
   My Dream,  My Love
     Am            Cm
Anata ga soba ni iru to 
     Gadd9   Bm   C     Cm  Dsus4 D
Kaze no iro sae kawatte shimau 

Bridge:

Em        Bm     Em  Bm       Em
Mizu wa kagayaki hikari to asobu 
Em          Bm     Am        Bm  Cadd9
Toki wo ano sora e tokashite shimae 

Gadd9  Em7  Am Asus4   Dsus4 D

Verse:

Gadd9       Em7   
Your Dream, Your Love 
    Am          Cm
Anata ga hohoemu toki 
    Gadd9     Bm   C       Cm  Dsus4 D
Urunda hitomi no kageri wa kieru 

Bridge:

Em      Bm    Em   Bm        Em
Atsui omoi ni mune wo kogashite 
Em       Bm      Am      Bm    Csus4
Yagate tabidatsu kibou e no mi chi 
Em       Bm      Em   Bm        Em
Nagareru kumo ni mori wo utsushite 
Em        Bm     Am       Bm     Cadd9
Tori wa oozora e jiyuu ni tobu yo… 

Outro Solo:

Gadd9  Em  Am    Cm
Bm  Am  Cadd9 Gadd9


   Gadd9         Em       Am               Cm
e|---3/5-3---------2p0-----0--3/7-7-5-3-0--------3------------------|
B|---0-------------0---3p0-1------------------4---------------------|
G|---2-------------0-------2-----------------5----------------------|
D|--0--------------2-------2----------------5-----------------------|
A|---------------2---------0---------------3------------------------|
E|-3-------3-2-0----------------------------------------------------|

                        Bm    Am                Cadd9          Gadd9
e|-3h5-5/7--5-7/10-10~----2-------0-3/7~5-2-------------------------|
B|-----------------------3--3----1----------3-0--3h5---3---3--------|
G|----------------------4-------2----------------0----0--0---0---2--|
D|---------------------4-------2-----------------2---2-----------0--|
A|--------------------2-------0------------------3---------------2--|
E|---------------------------------------------------------------3--|


Chords:

   Gadd9   Cadd9   Asus4   Dsus4   Em7
e|---3-----------------------3------0-----|
B|---0-------3-------3-------3------3-----|
G|---2-------0-------2-------2------0-----|
D|---0-------2-------2-------0------2-----|
A|---2-------3-------0--------------2-----|
E|---3------------------------------0-----|


Note: I play the outro solo a little different every time, but this is really 
close to the recorded version.
I sat for hours figuring out each chord! 
If you have any questions, feel free to send me an email.

Enjoy!

************************************

| /   slide up
| \   slide down
| h   hammer-on
| p   pull-off
| ~   vibrato
| +   harmonic
| x   Mute note
| b   Bend
| pb  Pre-bend
| br  Bend release
| pbr Pre-bend release
| brb Bend release bend

************************************
Добавлено: 23.03.2012
Другие материалы по этой песне:
  • Аккорды и текст

Страница создана 23.03.2012
http://primanota.ru/ichiko-aoba/tooi-akogare-chords.htm
Привет, Гость.
Предлагаем пройти революционный курс по гитаре.
Подарок от PrimaNota.Ru, забирай!