PrimaNota.ru - самый крупный в мире бесплатный архив песенных текстов, аккордов, табулатур и нот


Ichiko Aoba - Light Hometown - таба, видео

Регистрация Запомнить меня
Войти через:  Facebook Google Twitter Vk Yandex Mail.ru

Ichiko Aoba - Light Hometown - таба, видео

Печатать
Просмотров: 96
Please note: The top e is tuned to eb.

eb|----0------------------------------|
B |---3--------1---1-----3----3-4-----|
G |--3-----3-5-1-3-----3----3---3---3-|
D |------5------------3---3-----------|
A |------------------1----------3-----|
E |-3----------4----------------------|

Variation at 1:04 (Play once).

eb|----0---------0-------------------------------------0-|
B |---3---------3-------1------1--1------3------4--------|
G |--3---------3----3---1------1----3---3------3---------|
D |-------------------0----------------3-----------------|
A |-----------------------------------1-------3----------|
E |-3---------3---------4------4-------------------------|

Play these two notes right at the end...

eb|------|
B |----4-|
G |-3----|
D |------|
A |------|
E |------|

Добавлено: 03.06.2016
Другие материалы по этой песне:
  • Аккорды и текст

Страница создана 03.06.2016
http://primanota.ru/ichiko-aoba/light-hometown-chords.htm
Привет, Гость.
Предлагаем пройти революционный курс по гитаре.
Подарок от PrimaNota.Ru, забирай!