PrimaNota.ru - самый крупный в мире бесплатный архив песенных текстов, аккордов, табулатур и нот


Icehouse - We Can Get Together - текст песни, бас-таба, видео

Регистрация Запомнить меня
Войти через:  Facebook Google Twitter Vk Yandex Mail.ru

Icehouse - We Can Get Together - текст песни, бас-таба, видео

Печатать
Просмотров: 32
Tabbed by: bassm99
E-mail: alanmatthews1966@yahoo.co.uk

Tuning: E, A, D, G

"We Can Get Together" from the album "Icehouse" (1980)
Written by Iva Davies
Band were known as Flowers for this release in Australia

Intro: (Bass comes in at 0:11) (Play 8 Times)

G|--------------------------------------------------------------------------|
D|--------------------------------------------------------------------------|
A|--------------------------------------------------------------------------|
E|--33-3--------------------------------------------------------------------|

Verse: (Play 3 Times)

G|--------------------------------------------------------------------------|
D|--------------------------------------------------------------------------|
A|--------------------------------------------------------------------------|
E|--88888888-66666666-55555555-55555555-------------------------------------|

Pre Chorus:

G|--------------------------------------------------------------------------|
D|--------------------------------------------------------------------------|
A|----------------55-7-(x3)-------------------------------------------------|
E|--33333333-3333-----------33333333-33333333-------------------------------|

Repeat Verse:

Pre Chorus: (Play Twice)

G|--------------------------------------------------------------------------|
D|--------------------------------------------------------------------------|
A|----------------55-7------------------------------------------------------|
E|--33333333-3333-----------------------------------------------------------|

Chorus:

G|--------------------------------------------------------------------------|
D|--------------------------------------------------------------------------|
A|--88888888-8888-----------------------55-7-----------------55-7-----------|
E|----------------55-77---88888888-8888--------33333333-3333----------------|

G|--------------------------------------------------------------------------|
D|--------------------------------------------------------------------------|
A|--88888888-8888-----------------------55-7--------------------------------|
E|----------------55-77---88888888-8888-------------------------------------|

G|--------------------------------------------------------------------------|
D|--------------------------------------------------------------------------|
A|--------------------------------------------------------------------------|
E|--33-3-(x8)---------------------------------------------------------------|

Repeat Verse:

Pre Chorus: (Play Twice)

G|--------------------------------------------------------------------------|
D|--------------------------------------------------------------------------|
A|----------------55-7------------------------------------------------------|
E|--33333333-3333-----------------------------------------------------------|

Chorus:

G|--------------------------------------------------------------------------|
D|--------------------------------------------------------------------------|
A|--88888888-8888-----------------------55-7-----------------55-7-(x4)------|
E|----------------55-77---88888888-8888--------33333333-3333----------------|

G|--------------------------------------------------------------------------|
D|--------------------------------------------------------------------------|
A|--88888888-------------------------------55-7-----------------------------|
E|-----------1-1-1-1-55-77---88888888-8888----------------------------------|

G|--------------------------------------------------------------------------|
D|--------------------------------------------------------------------------|
A|--------------------------------------------------------------------------|
E|--33-3-(x7)---------------------------------------------------------------|

End:

G|--------------------------------------------------------------------------|
D|--------------------------------------------------------------------------|
A|--------------------------------------------------------------------------|
E|--3-0-3-------------------------------------------------------------------|
Добавлено: 15.11.2015
Другие материалы по этой песне:
  • Аккорды и текст

Страница создана 06.09.2014
http://primanota.ru/icehouse/we-can-get-together-chords.htm
Привет, Гость.
Предлагаем пройти революционный курс по гитаре.
Подарок от PrimaNota.Ru, забирай!