PrimaNota.ru - самый крупный в мире бесплатный архив песенных текстов, аккордов, табулатур и нот


Icehouse - Trojan Blue - бас-таба, видео

Регистрация Запомнить меня
Войти через:  Facebook Google Twitter Vk Yandex Mail.ru

Icehouse - Trojan Blue - бас-таба, видео

Печатать
Просмотров: 28
Авторы музыки: Iva Davies
Авторы текста: Iva Davies
Tabbed by: bassm99
E-mail: alanmatthews1966@yahoo.co.uk

Tuning: E, A, D, G

"Trojan Blue" from the album "Primitive Man" (1982)
Written by Iva Davies

Bass Starts: 0:27

Intro: 

G|--------------------------------------------------------------------------|
D|--------------------------------------------------------------------------|
A|--------------------------------------------------------------------------|
E|--5--------3--------------------------------------------------------------|

G|--------------------------------------------------------------------------|
D|----77777----77--3-33-33---------77777----77--3-3-3-3-3-------------------|
A|-------------------------5------------------------------5-----------------|
E|--5-------55---------------3---5-------55-----------------3---------------|

G|--------------------------------------------------------------------------|
D|----77777----77--3-33-33-3------------------------------------------------|
A|---------------------------22-33------------------------------------------|
E|--5-------55--------------------------------------------------------------|

G|--------------------------------------------------------------------------|
D|--------------------------------------------------------------------------|
A|--5-55--7-77--7--------------5-55--5-7-77-8-7-8---------------------------|
E|----------------6-66-66-66----------------------6-66-66-66----------------|

Verse:

G|--------------------------------------------------------------------------|
D|------------------------------77777----77--3-33-33-33---------------------|
A|------------------------------------------------------5-------------------|
E|--5-55-55-55--33-33-33-33---5-------55------------------3-----------------|

G|--------------------------------------------------------------------------|
D|----77777----77--3-33-33-33---------77777----77--3-33-33-33---------------|
A|----------------------------5---------------------------------------------|
E|--5-------55------------------3---5-------55------------------------------|

Chorus:

G|--------------------------------------------------------------------------|
D|----------------------------------8---------------------------------------|
A|--5-55--5-7-77-8-7-8------------8-----5-55--7-77-8-7-8--------------------|
E|---------------------6-66-66-66------------------------6-66-66-66-5-3-----|

G|--------------------------------------------------------------------------|
D|--------------------------------------------------------------------------|
A|--3-33-3-33--3-0---------------5-55--5-7-77-8-7-8-------------------------|
E|------------------3-33-33-33----------------------6-66-66-66--------------|

Verse:

G|--------------------------------------------------------------------------|
D|----77777----77--3-33-33-33-------------77777----77--3-33-33-33-----------|
A|----------------------------5---------------------------------------------|
E|--5-------55------------------3-(x2)--5-------55--------------------------|

Chorus:

G|--------------------------------------------------------------------------|
D|-------------------------------8888---------------------------------------|
A|--5-55--5-7-77-8-7-8---------8-------5-55--5-7-77-8-7-8-------------------|
E|---------------------6-66-66----------------------------6-66-66-66-5-3----|

G|--------------------------------------------------------------------------|
D|--------------------------------------------------------------------------|
A|--3-33-33-3-33-0---------------5-55--5-7-77-8-7-8-------------------------|
E|------------------3-33-33-33----------------------6-66-66-6-6-6-----------|

Verse:

G|--------------------------------------------------------------------------|
D|----------7-7777--3-3-3-3-3--------77777----77--3-33-----33333------------|
A|----------------------------5------------------------5---------5----------|
E|--5-55-55---------------------3--5-------55------------3---------3--------|

Chorus:

G|--------------------------------------------------------------------------|
D|-------------------------------8888---------------------------------------|
A|--5-55--5-7-77-8-7-8---------8-------5-55--5-7-77-8-7-8-------------------|
E|---------------------6-66-66----------------------------6-66-66-66-5-3----|

G|--------------------------------------------------------------------------|
D|--------------------------------------------------------------------------|
A|--3-33-33-3-33-0---------------5-55--5-7-77-8-7-8-------------------------|
E|------------------3-33-33-33----------------------6-66-66-66--------------|

End:

G|--------------------------------------------------------------------------|
D|--------------------------------------------------------------------------|
A|--5-55--5-7-77-8-7-8------------------------------------------------------|
E|---------------------6----------------------------------------------------|

Добавлено: 15.11.2015
Вам также может быть интересно:
Другие материалы по этой песне:
  • Аккорды и текст

Страница создана 15.11.2015
http://primanota.ru/icehouse/trojan-blue-chords.htm
Привет, Гость.
Предлагаем пройти революционный курс по гитаре.
Подарок от PrimaNota.Ru, забирай!