PrimaNota.ru - самый крупный в мире бесплатный архив песенных текстов, аккордов, табулатур и нот


Icehouse - Skin - бас-таба, видео

Регистрация Запомнить меня
Войти через:  Facebook Google Twitter Vk Yandex Mail.ru

Icehouse - Skin - бас-таба, видео

Печатать
Просмотров: 46
Tabbed by: bassm99
E-mail: alanmatthews1966@yahoo.co.uk

Tuning: E, A, D, G

"Skin" from the album "Icehouse" (1980)
Written by Iva Davies/Michael Hoste
Band were known as Flowers for this release in Australia

Intro: 

G|--------------------------------------------------------------------------|
D|--------------------------------------------------------------------------|
A|--------------------------------------------------------------------------|
E|--4---4-4-(x3)--4---4-----------------------------------------------------|

Verse:

G|--------------------------------------------------------------------------|
D|--------------------------------------------------------------------------|
A|--66666666----------------------------------------------------------------|
E|-----------99999999-7777777-3-44444444------------------------------------|

G|--------------------------------------------------------------------------|
D|--------------------------------------------------------------------------|
A|--66666666----------------------------------------------------------------|
E|-----------99999999-7777777-3-4444444-2-----------------------------------|

Pre Chorus:

G|--------------------------------------------------------------------------|
D|--------------------------------------------------------------------------|
A|------------------------------44444444------------------------------------|
E|--00000000-4444444-2-00000000---------------------------------------------|

Repeat Verse:

Repeat Pre Chorus:

Chorus:

G|--------------------------------------------------------------------------|
D|--------------------------------------------------------------------------|
A|--------------------------------------------------------------------------|
E|--44444444-4444444-2-00000000-00000000------------------------------------|

G|--------------------------------------------------------------------------|
D|--------------------------------------------------------------------------|
A|-------------------------------------7-5-44444444-44444-------------------|
E|--44444444-4444444-2-00000000-000000--------------------------------------|

Repeat Verse:

Repeat Pre Chorus:

Repeat Chorus:

Guitar Solo:

G|--------------------------------------------------------------------------|
D|--------------------------------------------------------------------------|
A|--66666666-(x3)-6666666-4-------------------------------------------------|
E|---------------------------66666666-6666666-4-66666666-66666666-----------|

Repeat Chorus:

End:

G|--------------------------------------------------------------------------|
D|--------------------------------------------------------------------------|
A|--------------------------------------------------------------------------|
E|--4---4-4-(x3)--4---4-----------------------------------------------------|

Добавлено: 15.11.2015
Другие материалы по этой песне:
  • Аккорды и текст

Страница создана 15.11.2015
http://primanota.ru/icehouse/skin-chords.htm
Привет, Гость.
Предлагаем пройти революционный курс по гитаре.
Подарок от PrimaNota.Ru, забирай!