PrimaNota.ru - самый крупный в мире бесплатный архив песенных текстов, аккордов, табулатур и нот


Iced Earth - Sacrificial Kingdoms - таба, видео

Регистрация Запомнить меня
Войти через:  Facebook Google Twitter Vk Yandex Mail.ru

Iced Earth - Sacrificial Kingdoms - таба, видео

Печатать
Просмотров: 99
Авторы музыки: Jon Schaffer
Авторы текста: Matthew Barlow
I had seen there were no version of SACRIFICIAL KINGDOMS by ICED EARTH online, so 
I figured I would tab out the way I play it because this song rules!
Though it may not be perfect, it is the best I have come up with.

ICED EARTH-Sacrificial Kingdoms
Tuning: Eb (Eb Ab Db Gb Bb eb)
Time signature: 4/4

INTRO
|------------------------------|-------------------------------|
|o-----------------------------|------------------------------o|
|------------------------------|-------------------------------|
|-------2----2-----6-66-6h7p6--|-------2----2-----3-33-3h6p3\2-|
|o------2----2---2-----------8-|-------2----2---2-------------o|
|-0-000-0--0-0---0-------------|-0-000-0--0-0---0--------------|

VERSE I
|--------------------------------------|--------------------------------------|
|o-------------------------------------|-------------------------------------o|
|--------------------------------------|--------------------------------------|
|--------------------------6-66-6h7p6--|-------------------------3-33-3h6p3\2-|
|o---------2-------------------------8-|----------2--------------------------o|
|-0-00-0-0-0-0-0-000-0-000-------------|-0-00-0-0-0-0-0-000-0-000-------------|

|----------------------------|--------------------|
|o---------------------------|-------------------o|
|--------7---7--------10--10-|--------------------|
|--------7---7--------10--10-|-------5--4-5-------|
|o-5-555-5---5--8-888--8---8-|-7-777-7--5-7------o|
|----------------------------|--------------------|

VERSE II
|--------------------------------------|--------------------------------------|
|o-------------------------------------|-------------------------------------o|
|--------------------------------------|--------------------------------------|
|--------------------------6-66-6h7p6--|-------------------------3-33-3h6p3\2-|
|o---------2-------------------------8-|----------2--------------------------o|
|-0-00-0-0-0-0-0-000-0-000-------------|-0-00-0-0-0-0-0-000-0-000-------------|

|----------------------------|--------------------|
|o---------------------------|-------------------o|
|--------7---7--------10--10-|--------------------|
|--------7---7--------10--10-|-------5--4-5-------|
|o-5-555-5---5--8-888--8---8-|-7-777-7--5-7------o|
|----------------------------|--------------------|

CHORUS
NOTE: The notes in parenthesis are played by a separate guitar which might have more to it.
|---(0)------------------|---(5)------------------|---(3)------------------|-------------------|
|o--(0)------------------|---(5)------------------|---(3)------------------|------------------o|
|------------------------|------------------------|------------------------|-2-------4-4-4-----|
|----5-4-5-------5-7-5-4-|-4--4-2-4-------4-5-4-2-|-2--2-0-2-------2-4-2-2-|-2-------4-4-45-4--|
|o---7-5-7---7-7-7-9-7-5-|-5--5-3-5---5-5-5-7-5-3-|-3--3-2-3---3-3-3-5-3-0-|-0---0-0-2-2-25-4-o|
|-0----------------------|------------------------|------------------------|--------------3-2--|

|--------------------------------------|--------------------------------------|
|--------------------------------------|--------------------------------------|
|--------------------------------------|--------------------------------------|
|--------------------------6-66-6h7p6--|-------------------------3-33-3h6p3\2-|
|----------2-------------------------8-|----------2---------------------------|
|-0-00-0-0-0-0-0-000-0-000-------------|-0-00-0-0-0-0-0-000-0-000-------------|

VERSE III
|--------------------------------------|--------------------------------------|
|o-------------------------------------|-------------------------------------o|
|--------------------------------------|--------------------------------------|
|--------------------------6-66-6h7p6--|-------------------------3-33-3h6p3\2-|
|o---------2-------------------------8-|----------2--------------------------o|
|-0-00-0-0-0-0-0-000-0-000-------------|-0-00-0-0-0-0-0-000-0-000-------------|

|----------------------------|--------------------|
|o---------------------------|-------------------o|
|--------7---7--------10--10-|--------------------|
|--------7---7--------10--10-|-------5--4-5-------|
|o-5-555-5---5--8-888--8---8-|-7-777-7--5-7------o|
|----------------------------|--------------------|

CHORUS
NOTE: The notes in parenthesis are played by a separate guitar which might have more to it.
|---(0)------------------|---(5)------------------|---(3)------------------|-------------------|
|o--(0)------------------|---(5)------------------|---(3)------------------|------------------o|
|------------------------|------------------------|------------------------|-2-------4-4-4-----|
|----5-4-5-------5-7-5-4-|-4--4-2-4-------4-5-4-2-|-2--2-0-2-------2-4-2-2-|-2-------4-4-45-4--|
|o---7-5-7---7-7-7-9-7-5-|-5--5-3-5---5-5-5-7-5-3-|-3--3-2-3---3-3-3-5-3-0-|-0---0-0-2-2-25-4-o|
|-0----------------------|------------------------|------------------------|--------------3-2--|

INTERLUDE
|-----------------------------------------------|----------------------------------|
|o-----------32nd-notes--------------32nd-notes-|----------32nd-notes -------------|
|-------------_________---------------________--|------------_______-------------7-|
|------------|---------|-------------|--------|-|-----------|-------|-----------7--|
|o-7----7----12-14-12-10-10----10----10-12-10-9-|-9----9----9-10-9-7--7----7-5-5---|
|---000--000---------------000---000------------|--000--000------------000---------|

|----------------------------------------------|-----------------------------------|
|-----------32nd-notes--------------32nd-notes-|----------32nd-notes -------------o|
|------------_________---------------________--|------------_______-------------7--|
|-----------|---------|-------------|--------|-|-----------|-------|----------7-7--|
|-7----7----12-14-12-10-10----10----10-12-10-9-|-9----9----9-10-9-7--7----7-5-5-5-o|
|--000--000---------------000---000------------|--000--000------------000----------|

|----------------------|------------------|----------------------|----------------|
|----------------------|------------------|----------------------|----------------|
|----------------------|------------------|----------------------|----------------|
|-5---5-4-5-7--7-7-5-7-|-5---5-4-5-4------|-5---5-4-5-7--7-7-5-7-|-5---5-4--------|
|-3---3-2-3-5--5-5-3-5-|-3---3-2-3-2------|-3---3-2-3-5--5-5-3-5-|-3---3-2-5-2----|
|----------------------|------------------|----------------------|---------3-0----|

CHORUS
NOTE: The notes in parenthesis are played by a separate guitar which might have more to it.
|---(0)------------------|---(5)------------------|---(3)------------------|-------------------|x6
|o--(0)------------------|---(5)------------------|---(3)------------------|------------------o|
|------------------------|------------------------|------------------------|-2-------4-4-4-----|
|----5-4-5-------5-7-5-4-|-4--4-2-4-------4-5-4-2-|-2--2-0-2-------2-4-2-2-|-2-------4-4-45-4--|
|o---7-5-7---7-7-7-9-7-5-|-5--5-3-5---5-5-5-7-5-3-|-3--3-2-3---3-3-3-5-3-0-|-0---0-0-2-2-25-4-o|
|-0----------------------|------------------------|------------------------|--------------3-2--|

(staccato)
|---------------|----------------*|
|---------------|----------------*|
|-.---.---------|----------------*|
|-2---2---2-----|-(2)------------*|
|-2---2---2-----|-(2)------------*|
|-0---0---0-----|-(0)------------*|
|
|---------------|----------------*|
|---------------|----------------*|
|-.---.---------|----------------*|
|-5---5---5-----|-(5)------------*|
|-7---7---7-----|-(7)------------*|
|-0---0---0-----|-(0)------------*|

If you have any questions, e-mail me at cjdabest@cox.net
Добавлено: 04.12.2013
Другие материалы по этой песне:
  • Аккорды и текст

Страница создана 04.12.2013
http://primanota.ru/iced-earth/sacrificial-kingdoms-chords.htm
Привет, Гость.
Предлагаем пройти революционный курс по гитаре.
Подарок от PrimaNota.Ru, забирай!