PrimaNota.ru - самый крупный в мире бесплатный архив песенных текстов, аккордов, табулатур и нот


Iced Earth - Night Of The Stormrider - таба, видео

Регистрация Запомнить меня
Войти через:  Facebook Google Twitter Vk Yandex Mail.ru

Iced Earth - Night Of The Stormrider - таба, видео

Печатать
Просмотров: 67
Band - Iced Earth
Album - Night Of The Stormrider

Track Listings:
1. Angel's Holocaust
2. Stormrider
3. The Path I Choose
4. Before The Vision
5. Mystical End
6. Desert Rain
7. Pure Evil
8. Reaching The End
9. Travel In Stygian

----------------------------------------------------------

1. ANGEL'S HOLOCAUST
Tuning: Eb

Riff 1 
Guitar 1                 x2
eb|-----------------------|------------------------------|
Bb|-----------------------|------------------------------|
Gb|-----------------------|------------------------------|
Db|----------12\11-11\9-9-|----------12\11-12--14--12-11-|
Ab|-----1010-10\-9--9\7-7-|-----1010-10\-9-10--12--10--9-|
Eb|-0-0-------------------|-0-0--------------------------|
    * *  * *                * *  * *         

Guitar 2 (Choir harmony arranged for guitar, 3rd & 4th times)
                     x2
eb|-------------------|------------------------|
Bb|-------------------|------------------------|
Gb|-------------------|------------------------|
Db|-----9-9-9\7-7\5-5-|-----9-9-9\7-9--10--9-7-|
Ab|-------------------|------------------------|
Eb|-0-0---------------|-0-0--------------------|
    * * * *             * * * *         


Riff 2
eb|----------------------------------|
Bb|----------------------------------|
Gb|----------------------------------|
Db|-9--9--9--9-10-9------------------|
Ab|-7--7--7--7--8-7--9--9--9--9-10-9-|
Eb|------------------7--7--7--7--8-7-|

eb|----------------------------|
Bb|----------------------------|
Gb|----------------------------|
Db|-7--7--7--7-9-7--9--9--9----|
Ab|-5--5--5--5-7-5--7--7--7-77-|
Eb|----------------------------|
                            **
eb|----------------------|
Bb|----------------------|
Gb|----------------------|
Db|-10-9----10-9----10\9-|
Ab|--8-7-77--8-7-77--8\7-|
Eb|----------------------|
         **      **


Riff 3 (Acoustic, Play 3x)
                  x4
eb|-------0--------|--------------------------------|
Bb|----------0-----|-------0------------------------|
Gb|------------0---|-----0----0---------------------| 
Db|-----4--------4-|---2--------2-0-----0-----0-----|
Ab|---2------------|-3----------------2-----0-----2-|
Eb|-0--------------|----------------3-----2-----3---|
   "As I walk through..." 

eb|-------0--------------0--------|
Bb|----------0--------------0-----|
Gb|------------0--------------0---|
Db|-----4--------4-----4--------4-|
Ab|---2--------------2------------|
Eb|-0--------------0--------------|


Riff 4 (Distortion)
eb|-------------------------------|
Bb|-------------------------------|
Gb|-------------------------------|
Db|-------------------------------|
Ab|-4----4---------4----4---------|
Eb|-2--0-2--0-2220-2--0-2--0-2220-|
       *    * ****    *    * ****
  "I fight back..."
eb|--------------------------------|
Bb|--------------------------------|
Gb|--------------------------------|
Db|------3--------------3----------|
Ab|-2----1--1-1111-2----1--1-1111--|
Eb|-0--0-----------0--0------------|
       *    * ****    *    * ****
   "...see..."


Riff 5 (Acoustic, Solo Rhythm)
eb|---------------------------------|
Bb|-----0---0-----------0-----0-----|
Gb|---0---0---0---0---2-----4-------|
Db|-2-----------2---3-----5-----5-3-|
Ab|---------------------------------|
Eb|---------------------------------|

Solo
eb|--------------------------------------------|
Bb|-------------15-20-17~--17h20-17--17h18-15~-|
Gb|-------14-16--------------------------------|
Db|-14-17--------------------------------------|
Ab|--------------------------------------------|
Eb|--------------------------------------------|

eb|--------------------------------------------|
Bb|-------------15-20-17~--17h20-17------------|
Gb|-------14-16----------------------16h19-16~-|
Db|-14-17--------------------------------------|
Ab|--------------------------------------------|
Eb|--------------------------------------------|

eb|----19~---/22-19h22p19\17---19-17h19p17\15------------------|
Bb|-17----------------------20---------------18-15b17~-(17)r15-|
Gb|------------------------------------------------------------|
Db|------------------------------------------------------------|
Ab|------------------------------------------------------------|
Eb|------------------------------------------------------------|

eb|-------19-22b24r22-22b24~-|
Bb|----22--------------------|
Gb|-19-----------------------|
Db|--------------------------|
Ab|--------------------------|
Eb|--------------------------|

End solo


Riff 5a (Acoustic)
eb|----------0-----------------------|
Bb|------0-----0---------0-----0-----|
Gb|----0---0-----0-----2-----4-------|
Db|--2-------------2-3-----5-----5-3-|
Ab|----------------------------------|
Eb|----------------------------------|
   "He didn't think..."   


Riff 6 (Distortion)                              x2
eb|-----------------------------------------------|
Bb|-----------------------------------------------|
Gb|-----------------------------------------------|
Db|-9---9-9--9--9--9--10----9---9-9--9--9--10--9--|
Ab|-7-777-7--7--7--7---8----7-777-7--7--7---8--7--|
Eb|-----------------------------------------------|


Riff 6a (Play 2x)
eb|-------------------------------|
Bb|-------------------------------|
Gb|-------------------------------|
Db|-9-----9---9-----9--10----10\9-|
Ab|-7-777-7-7-7-777-7-0-8-----8\7-|
Eb|-------------------------------|
      ***   *   ***   *
  "Hate filled screams..."
eb|-------------------------------|
Bb|-------------------------------|
Gb|-------------------------------|
Db|-9-----9---9-----10---9----9\7-|
Ab|-7-777-7-7-7-777--8-0-7----7\5-|
Eb|-------------------------------|
      ***   *   ***    *
  "...break the silence..."


Riff 6b (Play 2x)
eb|-------------------------------|
Bb|-------------------------------|
Gb|-------------------------------|
Db|-9-----9---9-----9-------------|
Ab|-7-777-7-7-7-777-7-0-8-----8\7-|
Eb|---------------------8-----8\7-|
      ***   *   ***   *
  "Blasphemy..."
eb|-------------------------------|
Bb|-------------------------------|
Gb|-------------------------------|
Db|-9-----9---9-----10------------|
Ab|-7-777-7-7-7-777--8-0-7----7\5-|
Eb|----------------------7----7\5-|
      ***   *   ***    *
  "...in the masses..."


Riff 7
eb|------------------------|
Bb|------------------------|
Gb|------------------------|
Db|-7--7-9-7---------------|
Ab|-5--5-7-5--7-8--8-9-8-7-|
Eb|-----------5-6--6-7-6-5-|

eb|----------------------------------|
Bb|----------------------------------|
Gb|-9-----9-----10-----7-----9---9---|
Db|-9-----9-----10-----7-----9---9---|
Ab|---777---777----777---777---7---0-|
Eb|----------------------------------|
      ***   ***    ***   ***   *   *
eb|------------------------|
Bb|------------------------|
Gb|------------------------|
Db|-7--7-9-7---------------|
Ab|-5--5-7-5--7-8--8-9-8-7-|
Eb|-----------5-6--6-7-6-5-|


Play Riff 6a   "Fear the angel's..."
Play Riff 6b   "Death and hatred..."


Riff 7a
eb|------------------------|
Bb|------------------------|
Gb|------------------------|
Db|-7--7-9-7---------------|
Ab|-5--5-7-5--7-8--8-9-8-7-|
Eb|-----------5-6--6-7-6-5-|

eb|----------------------------------|
Bb|----------------------------------|
Gb|-9-----9-----10-----7-----9---9---|
Db|-9-----9-----10-----7-----9---9---|
Ab|---777---777----777---777---7---0-|
Eb|----------------------------------|
      ***   ***    ***   ***   *   *
eb|------------------------|
Bb|------------------------|
Gb|------------------------|
Db|-7--7-9-7---------------|
Ab|-5--5-7-5--7-8--8-9-8-7-|
Eb|-----------5-6--6-7-6-5-|

eb|-----------------------------|
Bb|-----------------------------|
Gb|-----------------------------|
Db|-----------------------------|
Ab|-2-2-2-2-2-2-2-2-2-2-2-2-2-2-|
Eb|-0-0-0-0-0-0-0-0-0-0-0-0-0-0-|
      * * * * * * * * * * * * * 


Riff 7b
eb|------------------------|
Bb|------------------------|
Gb|------------------------|
Db|-7--7-9-7---------------|
Ab|-5--5-7-5--7-8--8-9-8-7-|
Eb|-----------5-6--6-7-6-5-|
                                    x3
eb|----------------------------------|
Bb|----------------------------------|
Gb|-9-----9-----10-----7-----9---9---|
Db|-9-----9-----10-----7-----9---9---|
Ab|---777---777----777---777---7---7-|
Eb|----------------------------------|
      ***   ***    ***   ***   *   *
eb|----------------------------------|
Bb|----------------------------------|
Gb|-9-----9-----10-----7-----9---9---|
Db|-9-----9-----10-----7-----9---9---|
Ab|---777---777----777---777---7---0-|
Eb|----------------------------------|
      ***   ***    ***   ***   *   *


Riff 8
Guitar 1
eb|---------------------------------|
Bb|---------------------------------|
Gb|---------------------------------|
Db|---------------------------------|
Ab|-7-777-7-777-777-8-777-7-777-777-|
Eb|---------------------------------|
    * *** * *** *** * *** * *** ***
eb|---------------------------------|
Bb|---------------------------------|
Gb|---------------------------------|
Db|---------------------------------|
Ab|-8-777-7-777-777-8-777-7-777-777-|
Eb|---------------------------------|
    * *** * *** *** * *** * *** ***
eb|---------------------------------|
Bb|---------------------------------|
Gb|---------------------------------|
Db|---------------------------------|
Ab|-8-888-8-888-888-9-888-8-888-888-|
Eb|---------------------------------|
    * *** * *** *** * *** * *** ***
eb|---------------------------------|
Bb|---------------------------------|
Gb|---------------------------------|
Db|---------------------------------|
Ab|-9-888-8-888-888-9-888-8-888-888-|
Eb|---------------------------------|
    * *** * *** *** * *** * *** *** 

Guitar 2
eb|---------------|
Bb|---------------|
Gb|---------------|
Db|---------------|
Ab|--2------5---3-|
Eb|--0------3---1-|

Guitar 3
eb|-5------7-------12------------------|
Bb|-h.-5---h.--7---h.--12----(12)~~~~*-|
Gb|----h.------h.------h.--------------|
Db|------------------------------------|
Ab|------------------------------------|
Eb|------------------------------------|

eb|---------------------------|
Bb|-7-----7--------5--(5)~~~*-|
Gb|-h.-7--h.-7--5--h.--h.-----|
Db|----h.----h.-h.------------|
Ab|---------------------------|
Eb|---------------------------|

eb|-5----------------------------------|
Bb|-h.-5---7-----------12----(12)~~~~*-|
Gb|----h.--h.---7------h.--------------|
Db|-------------h.---------------------|
Ab|------------------------------------|
Eb|------------------------------------|

eb|----------------------|
Bb|----------------------|
Gb|----------------------|
Db|--------7/10-10/15~~~-|
Ab|----------------------|
Eb|----------------------|

eb|---------------------------------------|
Bb|---------------------------------------|
Gb|--????---------------------------------|
Db|---------------------------------------|
Ab|---------------------------------------|
Eb|---------------------------------------|

eb|---------------------------------------|
Bb|---------------------------------------|
Gb|---------------------------------------|
Db|---------------------------------------|
Ab|---------------------------------------|
Eb|---------------------------------------|



Riff 9 (Solo Rhythm)
First time:
eb|------------------------------------------------|
Bb|------------------------------------------------|
Gb|------------------------------------------------|
Db|-9-999-7-9\--9-999-7-9--------------------------|
Ab|-7-777-5-7\--7-777-5-7--7-8--8-9---7--7---7-8-7-|
Eb|------------------------5-6--6-7-0-5--5-0-5-6-5-|
                                    *      * * *
eb|------------------------------------------------|
Bb|------------------------------------------------|
Gb|------------------------------------------------|
Db|-------7-9\--9-999-7-9--------------------------|
Ab|-7-777-5-7\--7-777-5-7--7-8--8-9---7--7---7-8-5-|
Eb|------------------------5-6--6-7-0-5--5-0-5-6-3-|
    * ***                           *      * * *

Rest of the time:
eb|------------------------------------------------|
Bb|------------------------------------------------|
Gb|------------------------------------------------|
Db|-------7-9\--------7-9--------------------------|
Ab|-7-777-5-7\--7-777-5-7--7-8--8-9---7--7---7-8-7-|
Eb|------------------------5-6--6-7-0-5--5-0-5-6-5-|
    * ***       * ***               *      * * *
eb|------------------------------------------------|
Bb|------------------------------------------------|
Gb|------------------------------------------------|
Db|-------7-9\--------7-9--------------------------|
Ab|-7-777-5-7\--7-777-5-7--7-8--8-9---7--7---7-8-5-|
Eb|------------------------5-6--6-7-0-5--5-0-5-6-3-|
    * ***       * ***               *      * * *



Solo
eb|-------------------------------------------------------------|
Bb|-17t15p13h15p13-15t14p12h14p12-17t15p13h15p13-15t14p12h14p12-|
Gb|-------------------------------------------------------------|
Db|-------------------------------------------------------------|
Ab|-------------------------------------------------------------|
Eb|-------------------------------------------------------------|

eb|-------------------------------------------------------------|
Bb|-17t15p13h15p13-15t14p12h14p12-17t15p13h15p13-15t14p12h14p12-|
Gb|-------------------------------------------------------------|
Db|-------------------------------------------------------------|
Ab|-------------------------------------------------------------|
Eb|-------------------------------------------------------------|

eb|-------------------------------------------------------------|
Bb|-18t15p13h15p13-17t14p12h14p12-18t15p13h15p13-17t14p12h14p12-|
Gb|-------------------------------------------------------------|
Db|-------------------------------------------------------------|
Ab|-------------------------------------------------------------|
Eb|-------------------------------------------------------------|

eb|--------------------------------------|
Bb|-15t14p12h14p12/-20t18--20t17--20t15--|
Gb|--------------------------------------|
Db|--------------------------------------|
Ab|--------------------------------------|
Eb|--------------------------------------|

eb|-------------------------------------------------------------|
Bb|-18-17-15--17--15--------------------------------------------|
Gb|-------------------17-15-17b18r17----------------------------|
Db|--------------------------a--------18~----18b19~~---(19)r18\-|
Ab|-------------------------------------------------------------|
Eb|-------------------------------------------------------------|

eb|---------------------------------------------|
Bb|---------------------------------------------|
Gb|-16-19-19p16-16-16-16~-----------------------|
Db|-----------------------16-19-19p16-16-16-16~-|
Ab|-----------------------------a------a--a-----|
Eb|---------------------------------------------|

eb|-------------------------------------------|
Bb|-------------------------------------------|
Gb|-16h19p16-16-17-16---------19p16-----------|
Db|---------------------19p16--a----19p16-----|
Ab|----------------------a-----------a----19~-|
Eb|----------------------------------------a--|

eb|---------------------------------------------|
Bb|---------------------------------------------|
Gb|---------------------------------------------|
Db|-16-19-19p16-16-17-16~--16-19-16--16--17-16~-|
Ab|-------------------------a--a--a---a---a--a--|
Eb|---------------------------------------------|

eb|------------------------------------------|
Bb|------------------------------------------|
Gb|-16-19-16--16--17-16~~--17-14-14--16~--14-|
Db|--a--a--a---a---a--a-----a--a--a---a----a-|
Ab|------------------------------------------|
Eb|------------------------------------------|

eb|----------------------------------------|
Bb|-12-15-12--12-12~--10-14-10--10--14-10~-|
Gb|--a--a--a---a--a----a--a--a---a---a--a--|
Db|----------------------------------------|
Ab|----------------------------------------|
Eb|----------------------------------------|

eb|-------------------------------|
Bb|-8-12-8--8--12-8~--10-7-7-8--7-|
Gb|-a--a-a--a---a-a----a-a-a-a--a-|
Db|-------------------------------|
Ab|-------------------------------|
Eb|-------------------------------|

eb|---------------------------|
Bb|---------------------------|
Gb|-9-7-7-9--7---12-9-9-12--9-|
Db|-a-a-a-a--a----a-a-a--a--a-|
Ab|---------------------------|
Eb|---------------------------|

eb|--------------------------------------|
Bb|--------------------------------------|
Gb|---------------------------------7~---|
Db|---------------------------------a----|
Ab|-9---------10-9-------12-10-9---------|
Eb|---12-10-9------12-10---------12------|

eb|-------14/15~-14----14----------------------------|
Bb|-12-17-----------17----17-15----------------------|
Gb|-----------------------------(16)/17~--17--12/14~-|
Db|----------------------------------------a---------|
Ab|--------------------------------------------------|
Eb|--------------------------------------------------|

eb|-------------------------------------|
Bb|-------------------------------------|
Gb|-14-12-11-12-11-9-11-9-7-9-7-6-7-6---|
Db|-----------a-----------------------9-|
Ab|-------------------------------------|
Eb|-------------------------------------|

Random artificial harmonics in this bar:
eb|------------------------------------|
Bb|------------------------------------|
Gb|-7-6---6-----6----------------------|
Db|-----9---9-7---9-7-9-7-6-7-6---6----|
Ab|-----------------------------9---9--|
Eb|------------------------------------|

End Solo


Ending
Guitar 1
eb|------------------------|
Bb|------------------------|
Gb|------------------------|
Db|----------------------2-|
Ab|-4---------3----------0-|
Eb|-2--2-2-2--1--1-1-1-----|
       * * *     * * *
Guitar 2
eb|---------------------------------|
Bb|---------------------------------|
Gb|-11--11-9---------9-11-12--/14~--|
Db|----------12--10-----------------|
Ab|---------------------------------|
Eb|---------------------------------|

Guitar 3
eb|--------------------------------|
Bb|-10--10-8--------8-10-12--/17~--|
Gb|----------11-10-----------------|
Db|--------------------------------|
Ab|--------------------------------|
Eb|--------------------------------|

The next part is the bridge between Angel's and Stormrider.  On one cd it's the 
end of Angel's, the other it's the beginning of Stormrider.  So here it is.

(12 String Acoustic)
Guitar 1           x2                x2
eb|-----------------|-----------------|
Bb|-----------------|-----------------|
Gb|-----9-------9---|-----7-------7---|
Db|---7---7---7---7-|---5---5---5---5-|
Ab|-0-------0-------|-0-------0-------|
Eb|-----------------|-----------------|
   "As I travel through..."

Guitar 2 (Distortion, Volume swells)
eb|-------------------------------|
Bb|-------------------------------|
Gb|-------------------------------|
Db|-14---------------14-------12--|
Ab|---------10----------------10--|
Eb|-------------------------------|

eb|----------------------------------|
Bb|----------------------------------|
Gb|----------------------------------|
Db|-14--------12--------14--------12-|
Ab|-12--------10--------12--------10-|
Eb|----------------------------------|
   "Lightning breaks..."
eb|--------------------------------|
Bb|--------------------------------|
Gb|--------------------------------|
Db|-10--------9----7---------------|
Ab|--8--------7----5-------------2-|
Eb|---------------------0000-...-0-|

------------------------------------------------

2. STORMRIDER
Tuning: Eb

This part is the bridge between Angel's and Stormrider.  On one cd it's the 
end of Angel's, the other it's the beginning of Stormrider.

(12 String Acoustic)
Guitar 1           x2                x2
eb|-----------------|-----------------|
Bb|-----------------|-----------------|
Gb|-----9-------9---|-----7-------7---|
Db|---7---7---7---7-|---5---5---5---5-|
Ab|-0-------0-------|-0-------0-------|
Eb|-----------------|-----------------|
   "As I travel through..."

Guitar 2 (Distortion, Volume swells)
eb|-------------------------------|
Bb|-------------------------------|
Gb|-------------------------------|
Db|-14---------------14-------12--|
Ab|---------10----------------10--|
Eb|-------------------------------|

eb|----------------------------------|
Bb|----------------------------------|
Gb|----------------------------------|
Db|-14--------12--------14--------12-|
Ab|-12--------10--------12--------10-|
Eb|----------------------------------|
   "Lightning breaks..."
eb|--------------------------------|
Bb|--------------------------------|
Gb|--------------------------------|
Db|-10--------9----7---------------|
Ab|--8--------7----5-------------2-|
Eb|---------------------0000-...-0-|


Stormrider

Riff 1
eb|---------------------------------|
Bb|---------------------------------|
Gb|---------------------------------|
Db|---------------------------------|
Ab|------------------------4--4-4-4-|
Eb|-0-0-2-000-3-000-6-000--2--2-2-2-|
    * * * *** * *** * ***           
   "Storming demons..."
eb|---------------------------------|
Bb|---------------------------------|
Gb|---------------------------------|
Db|---------------------------------|
Ab|------------------------3--3-3-3-|
Eb|-0-0-2-000-3-000-2-000--1--1-1-1-|
    * * * *** * *** * ***
   "The time is almost here..."

Final time:
eb|---------------------------------|
Bb|---------------------------------|
Gb|---------------------------------|
Db|---------------------------------|
Ab|------------------------3--3-3-2-|
Eb|-0-0-2-000-3-000-2-000--1--1-1-0-|
    * * * *** * *** * ***
   "My screams..."



Riff 2
eb|---------------------------------|
Bb|---------------------------------|
Gb|---------------------------------|
Db|-------------------------------3-|
Ab|---------------5---------------1-|
Eb|-0-000-000-000-3-0-000-000-000---|
    * *** *** ***   * *** *** ***    
  "I can feel..."
eb|---------------------------------------------|
Bb|---------------------------------------------|
Gb|---------------------------------------------|
Db|---------------------------------------------|
Ab|---------------4-------5-----3-------5-5-4-3-|
Eb|-0-000-000-000-2-0-000-3-3p0-1-0-000-3-3-2-1-|
    * *** *** ***   * *** *       * *** * * * 
  "...the pain is its reality..."


Riff 3
eb|--------------------------------------------|
Bb|--------------------------------------------|
Gb|--------------------------------------------|
Db|--------------------------------------------|
Ab|-2-----------4-----------3-----------2------| keep picking
Eb|-0----00-6-3-2----00-3-2-1----00-3-2-0--17\-| through slide
         ** * *      ** * *      ** * * 
  "Fight on, grab on..."
eb|---------------------------------------------|
Bb|---------------------------------------------|
Gb|---------------------------------------------|
Db|---------------------------------------------|
Ab|-2-----------4-----------3-----------2-------|
Eb|-0----00-6-3-2----00-3-2-1----00-3-2-0--/17\-|
         ** * *      ** * *      ** * *
  "Fight on, grab on..."


Riff 4
eb|---------------------------------|
Bb|---------------------------------|
Gb|---------------------------------|
Db|-------9-------9-------9-------9-|
Ab|-------7-------7-------7-------7-|
Eb|-0-000---0-000---0-000---0-000---|
    * ***   * ***   * ***   * ***    
eb|------------------------------------------|
Bb|------------------------------------------|
Gb|------------------------------------------|
Db|-------5\-------4-------5-----7-----8-7-5-|
Ab|-------7\-------5-5-555---555---555-------|
Eb|-0-000----0-000---------------------------|
    * ***    * ***   * ***   ***   *** 
eb|-----------------------------------------|
Bb|-----------------------------------------|
Gb|-----------------------------------------|
Db|-------5\-------4-------5-----7-----4tr5-|
Ab|-------7\-------5-5-555---555---555------|
Eb|-0-000----0-000--------------------------|
    * ***    * ***   * ***   ***   ***       
eb|------------------------------------------|
Bb|------------------------------------------|
Gb|------------------------------------------|
Db|-------5\-------4-------5-----7-----8-7-5-|
Ab|-------7\-------5-5-555---555---555-------|
Eb|-0-000----0-000---------------------------|
    * ***    * ***   * ***   ***   *** 
eb|------------------------------------------|
Bb|------------------------------------------|
Gb|------------------------------------------|
Db|-------5\-------4-------5-----7-----4-5-4-|
Ab|-------7\-------5-5-555---555---555-------|
Eb|-0-000----0-000---------------------------|
    * ***    * ***   * ***   ***   ***
       

Riff 5
eb|-------------------------------------------------|
Bb|-------------------------------------------------|
Gb|-------------------------------------------------|
Db|-------------------------------------------------|
Ab|-------------------------------------------------|
Eb|-0-000-0-000-0-000-0-000-0-000-0-000-0-000-0-000-|
    * *** * *** * *** * *** * *** * *** * *** * ***

Riff 5a
Guitar 1 
eb|----------------------------------------------------|
Bb|----------------------------------------------------|
Gb|----------------------------------------------------|
Db|----------------------------------------------------|
Ab|-------------------------------------5-555-5-7-8-7\-|
Eb|-0-000-0-000-0-000-0-000-0-000-0-000----------------|
    * *** * *** * *** * *** * *** * *** * *** * * *
eb|-------------------------------------------|
Bb|-------------------------------------------|
Gb|-------------------------------------------|
Db|-------------------------------------------|
Ab|-------------------------------------------|
Eb|-0-000-0-000-0-000-0-000-0-000-0-000-0-000-|
    * *** * *** * *** * *** * *** * *** * ***
eb|----------------------------------------------------|
Bb|----------------------------------------------------|
Gb|----------------------------------------------------|
Db|----------------------------------------------------|
Ab|-------------------------------------5-555-5-7-8-7\-|
Eb|-0-000-0-000-0-000-0-000-0-000-0-000----------------|
    * *** * *** * *** * *** * *** * *** * *** * * *
eb|--------------------|
Bb|--------------------|
Gb|--------------------|
Db|--------------------|
Ab|--------------------|
Eb|-0-000-0-000-10-9-8-|
    * *** * ***  * * *

Guitar 2
eb|----------------------------------------------------|
Bb|----------------------------------------------------|
Gb|----------------------------------------------------|
Db|-12----------------------7--------------------------|
Ab|-10----------------------5-----------5-555-5-7-8-7\-|
Eb|----------------------------------------------------|
                                        * *** * * * 
eb|-------------------------------------------|
Bb|-------------------------------------------|
Gb|-------------------------------------------|
Db|-------------------------------------------|
Ab|-------------------------------------------|
Eb|-0-000-0-000-0-000-0-000-0-000-0-000-0-000-|
    * *** * *** * *** * *** * *** * *** * ***
eb|----------------------------------------------------|
Bb|----------------------------------------------------|
Gb|----------------------------------------------------|
Db|-12----------------------7--------------------------|
Ab|-10----------------------5-----------5-555-5-7-8-7\-|
Eb|----------------------------------------------------|
                                        * *** * * * 


Riff 6 (Solo Rhythm)         x3 
eb|---------------------------|---------------------|
Bb|---------------------------|---------------------|
Gb|---------------------------|---------------------|
Db|-10-----9------------------|-9--9-9-9-10---------|
Ab|--8-----7------------------|-7--7-7-7--8---------| 
Eb|----0-0---000-0-000-10-9-8-|-7--7-7-7--8--10-9-8-| 
       * *   *** * ***  * * *                 * * * 
                             x3 
eb|---------------------------|--------------------|
Bb|---------------------------|--------------------|
Gb|---------------------------|--------------------|
Db|-10-----9------------------|-7--7-7-7-8---------|
Ab|--8-----7------------------|-5--5-5-5-6---------|
Eb|----0-0---000-0-000-10-9-8-|-5--5-5-5-6--10-9-8-|
       * *   *** * ***  * * *                * * *
                             x3 
eb|---------------------------|---------------------|
Bb|---------------------------|---------------------|
Gb|---------------------------|---------------------|
Db|-10-----9------------------|-9--9-9-9-10---------|
Ab|--8-----7------------------|-7--7-7-7--8---------| 
Eb|----0-0---000-0-000-10-9-8-|-7--7-7-7--8--10-9-8-| 
       * *   *** * ***  * * *                 * * * 
                             x3 
eb|---------------------------|----------------|
Bb|---------------------------|----------------|
Gb|---------------------------|----------------|
Db|-10-----9------------------|-7--7-7-7-8--8\-|
Ab|--8-----7------------------|-5--5-5-5-6--6\-| 
Eb|----0-0---000-0-000-10-9-8-|-5--5-5-5-6--6\-| 
       * *   *** * ***  * * *

Solo (Various pinch harmonics throughout)
eb|--------------------------------------|
Bb|----------10-9-8tr9--8-------8-7-6tr7-|
Gb|-9-8-9-10--------------7-8-9----------|
Db|--------------------------------------|
Ab|--------------------------------------|
Eb|--------------------------------------|

eb|-----------------------------------13\-|
Bb|---------------------------------------|
Gb|-10-------9-8-7tr8-----------9tr10-----|
Db|----7-8-9-----------9------------------|
Ab|--------------------a---7tr8-----------|
Eb|---------------------------------------|

eb|------------------------------------|
Bb|--------10-9-8tr9--8-------8-7-6tr7-|
Gb|-8-9-10--------------7-8-9----------|
Db|------------------------------------|
Ab|------------------------------------|
Eb|------------------------------------|

eb|----------------------------------10h11/-|
Bb|-----------------------------------------|
Gb|-10-------9-8-7tr8-----------7tr8--------|
Db|----7-8-9-----------9\-------------------|
Ab|--------------------a---5tr6-------------|
Eb|-----------------------------------------|

eb|-------20-------------------------19--------|
Bb|----------------20-------19-----------------|
Gb|----------17-17----16-16--------------------|
Db|-17-17----------------------16-16----16-16--|
Ab|--------------------------------------------|
Eb|--------------------------------------------|

eb|-19--------------------------18-------|
Bb|----------18-------17-----------------|
Gb|----16-16----15-15--------------------|
Db|----------------------15-15----17-17--|
Ab|--------------------------------------|
Eb|--------------------------------------|

eb|-20-------------------------19--------|
Bb|----------20-------19-----------------|
Gb|----17-17----16-16-------------16-16--|
Db|----------------------16-16-----------|
Ab|--------------------------------------|
Eb|--------------------------------------|

eb|-----------------------------------|
Bb|-19-------18--------17-------------|
Gb|----16-15-----------19b21----------|
Db|-------------17-17-----------17-17-|
Ab|-----------------------------------|
Eb|-----------------------------------|
 
eb|-20-------------------------19--------|
Bb|----------20-------19-----------------|
Gb|----17-17----16-16--------------------|
Db|----------------------16-16----16-16--|
Ab|--------------------------------------|
Eb|--------------------------------------|

eb|-19--------------------------18-------|
Bb|----------18-------17-----------------|
Gb|----16-16----15-15--------------------|
Db|----------------------15-15----17-17--|
Ab|--------------------------------------|
Eb|--------------------------------------|

eb|-20-------------------------19--------|
Bb|----------20-------19-----------------|
Gb|----17-17----16-16-------------16-16--|
Db|----------------------16-16-----------|
Ab|--------------------------------------|
Eb|--------------------------------------|

eb|--------------------------------------------|
Bb|-19-------18--------17-------20-------19----|
Gb|----16-15-----------19b21r19-22b24r22-21b23-|
Db|-------------17-17--------------------------|
Ab|--------------------------------------------|
Eb|--------------------------------------------|

End solo

Riff 7 (Guitar 2 comes in just playing the chords)
eb|---------------------------------|
Bb|---------------------------------|
Gb|---------------------------------|
Db|-------------4-444-2-222---------|
Ab|-------4-444-------------5-5-4-0-|
Eb|-2-222---------------------------|
    * *** * *** * *** * *** * * * * 
eb|---------------------------------|
Bb|---------------------------------|
Gb|---------------------------------|
Db|---------------------------------|
Ab|---------------------------------|
Eb|-3-333-3-333-333-5-555-6-666-5-5-|
    * *** * *** *** * *** * *** * *


Riff 7a
eb|---------------------------------|
Bb|---------------------------------|
Gb|---------------------------------|
Db|-------------4-444-2-222---------|
Ab|-------4-444-------------5-5-4-0-|
Eb|-2-222---------------------------|

eb|---------------------------------|
Bb|---------------------------------|
Gb|---------------------------------|
Db|---------------------------------|
Ab|---------------------------------|
Eb|-3-333-3-333-333-5-555-6-666-5-5-|


Riff 8
eb|----------------------------------|
Bb|----------------------------------|
Gb|----------------------------------|
Db|----------------------------------|
Ab|----------------------------------|
Eb|-0-000-000-000-000-000-000-000-00-|
    * *** *** *** *** *** *** *** ** 
eb|---------------------------------|
Bb|---------------------------------|
Gb|---------------------------------|
Db|---------------------------------|
Ab|---------------------------------|
Eb|-2-222-222-222-222-222-222-222-2-|
    * *** *** *** *** *** *** *** *

Riff 8a
eb|-------------------------------|
Bb|-------------------------------|
Gb|-------------------------------|
Db|-------------------------------|
Ab|-----------------2-----3-----2-|
Eb|-000-000-000-000---0-0---0-0---|
    *** *** *** ***   * *   * *    
eb|-------------------------------|
Bb|-------------------------------|
Gb|-------------------------------|
Db|-------------------------------|
Ab|-----------------4-----5-----4-|
Eb|-222-222-222-222---2-2---2-2---|
    *** *** *** ***   * *   * * 


Riff 9
Guitar 1
eb|--------------------------|
Bb|--------------------------|
Gb|--------------------------|
Db|-------9-----7------------|
Ab|-2-------------10-9-------|
Eb|-0-0-0---0-0--------0-000-|
      * *   * *        * ***
eb|--------------------------|
Bb|--------------------------|
Gb|--------------------------|
Db|--------------------------|
Ab|-2-----7-7-7-10-7-7-------|
Eb|-0-0-0--------------0-000-|
      * *              * ***

Guitar 2
eb|-------------------------|
Bb|----12-------12-10-------|
Gb|-11-------11-------12-11-|
Db|-------------------------|
Ab|-------------------------|
Eb|-------------------------|

eb|-------------------------------|
Bb|----13-------13-12----------13-|
Gb|-12-------12-------14-12-------|
Db|-------------------------------|
Ab|-------------------------------|
Eb|-------------------------------|

eb|----------------------|
Bb|-12-------12-10-------|
Gb|-------11-------12-11-|
Db|----------------------|
Ab|----------------------|
Eb|----------------------|

eb|----------------------------15----15-----|
Bb|----13-------13-12----------18b20-18b20~-|
Gb|-12-------12-------14-12-----------------|
Db|-----------------------------------------|
Ab|-----------------------------------------|
Eb|-----------------------------------------|


Ending to riff 9
eb|-------------------------|
Bb|-------------------------|
Gb|-------------------------|
Db|-------------------------|
Ab|-------5-----3-----6-----|
Eb|-3-333---333---333---333-|
    * ***   ***   ***   *** 
eb|---------------------------|
Bb|---------------------------|
Gb|---------------------------|
Db|---------------------------|
Ab|-------------------------2-|
Eb|-2-222-2-2-2-3-2-2-3-2-3-0-|
    * *** * * * * * * * * *

Play Riff 2   "Now the rider..."
Play Riff 3   "Fight on, grab on..."


Ending
eb|-----------------------------------|
Bb|-----------------------------------|
Gb|-----------------------------------|
Db|-----------------------------------|
Ab|-----------------------------------|
Eb|-0-000-000-00-6-3-2-222-222-00-3-2-|
    * *** *** ** * * * *** *** ** * * 
eb|-----------------------------------|
Bb|-----------------------------------|
Gb|-----------------------------------|
Db|-----------------------------------|
Ab|-----------------------------------|
Eb|-1-111-111-00-3-2-0-000-000-000-00-|
    * *** *** ** * * * *** *** *** **
eb|-----------------------------------|
Bb|-----------------------------------|
Gb|-----------------------------------|
Db|-----------------------------------|
Ab|-----------------------------------|
Eb|-0-000-000-00-6-3-2-222-222-00-3-2-|
    * *** *** ** * * * *** *** ** * * 
eb|------------------------------------------------|
Bb|------------------------------------------------|
Gb|------------------------------------------------|
Db|--------------------------------------10-----9\-|
Ab|-----------------2---------2-----------8-----7\-|
Eb|-1-111-111-0-3-2-0-0000...-0----10-9-8---0-0----|
    * *** *** * * * *               * * *   * * 


Ending Solo
eb|---------------15-17-19-15-17-19h20-19-17----------|
Bb|-------16-17-19---------------------------20p19p17-|
Gb|-----16--------------------------------------------|
Db|---17----------------------------------------------|
Ab|-19------------------------------------------------|
Eb|---------------------------------------------------|

eb|-20p19p17---------19p17p15---------17p15p13----------|
Bb|---------20p19p17\--------19p17p15\--------17p15p13\-|
Gb|-----------------------------------------------------|
Db|-----------------------------------------------------|
Ab|-----------------------------------------------------|
Eb|-----------------------------------------------------|

eb|-15p13p12---------13p12p10---------------|
Bb|---------15p13p12\--------13p12p10-13~~\-|
Gb|------------------------------------a----|
Db|-----------------------------------------|
Ab|-----------------------------------------|
Eb|-----------------------------------------|

eb|-------------------------------------------------|
Bb|---------------6---9-6-9/12-9--------------------|
Gb|-----------7-----7------------10-7---------------|
Db|---9-6-9-6---9---------------------9-6-----------|
Ab|-7-------------------------------------8-5-------|
Eb|-------------------------------------------7-4~~-|
    * * * * * * * * * * * *  * *  * * *  * *  
           slight palm mutes

End Solo

-----------------------------------------------------------

3. THE PATH I CHOOSE
Tuning: Eb

Intro                              x2
eb|---------------------------------|
Bb|---------------------------------|
Gb|---------------------------------|
Db|---------------------------------|
Ab|---------------------------------|
Eb|-0-000-0-000-000-0-000-0-000-000-|
    * *** * *** *** * *** * *** ***
                   x2                x2
eb|-----------------|-----------------|
Bb|-----------------|-----------------|
Gb|-----------------|-----------------|
Db|-----------------|-----------------|
Ab|-7-777-7-777-777-|-5-555-5-555-555-|
Eb|-----------------|-----------------|
    * *** * *** ***   * *** * *** ***
                   x2                x2
eb|-----------------|-----------------|
Bb|-----------------|-----------------|
Gb|-----------------|-----------------|
Db|-----------------|-----------------|
Ab|-8-888-8-888-888-|-7-777-7-777-777-|
Eb|-----------------|-----------------|
    * *** * *** ***   * *** * *** ***  

eb|---------------------------------|
Bb|---------------------------------|
Gb|---------------------------------|
Db|---------------------------------|
Ab|-3-333-3-333-333-5-555-5-555-555-|
Eb|---------------------------------|
    * *** * *** *** * *** * *** *** 
eb|---------------------------------|
Bb|---------------------------------|
Gb|---------------------------------|
Db|---------------------------------|
Ab|-2-222-2-222-222-2-222-2-222-222-|
Eb|---------------------------------|
    * *** * *** *** * *** * *** *** 
eb|---------------------------------|
Bb|---------------------------------|
Gb|---------------------------------|
Db|---------------------------------|
Ab|-3-333-3-333-333-5-555-5-555-555-|
Eb|---------------------------------|
    * *** * *** *** * *** * *** *** 
eb|----------------------------------|
Bb|----------------------------------|
Gb|----------------------------------|
Db|----------------------------------|
Ab|-2-222-2-222-222-2-222-2-222------|
Eb|-----------------------------//\\-|
    * *** * *** *** * *** * *** 


Riff 1
eb|----------------------------------------|
Bb|----------------------------------------|
Gb|----------------------------------------|
Db|---------7----7-----12--9-9\------------|
Ab|-2-------5----5-7-8-10--7-7\--2----2----|
Eb|-0----00----------------------0-00-0-00-|
         **        * *             **   **     
  "During the last rays..."
eb|---------------------------|
Bb|---------------------------|
Gb|---------------------------|
Db|---------------------------|
Ab|-3----3-----2----2---------|
Eb|-1-00-1--00-0-00-0-00-5320-|
      **    **   **   ** ****    


Riff 2
eb|---------------------------3---|
Bb|-----------------------------3-|
Gb|-------------------------------|
Db|-------------------------------|
Ab|--4----------4--5--------------|
Eb|--2----------2--3--------------|
   "Temptation befell me..."


Riff 3                                         x2
eb|---------------------------------------------|
Bb|---------------------------------------------|
Gb|---------------------------------------------|
Db|----------------------7---------10----101010-|
Ab|----------------------5----5555--8--0--8-8-8-|
Eb|-00000000000000000000------------------------|
    ********************      ****     *
                              "This is the path..."

Riff 4
eb|----------------------------------------------|
Bb|----------------------------------------------|
Gb|----------------------------------------------|
Db|------10-------------9------10-------9-7------|
Ab|-------8--------7-10---------8--7-10-----10-8-|
Eb|-0-000----0-000--------0-000------------------|
    * ***    * ***        * ***    

Riff 5
eb|-----------------------------------------------|
Bb|-----------------------------------------------|
Gb|-----------------------------------------------|
Db|-------2-----3-----2-----0-----2-----3-----2p0-|
Ab|-----------------------------------------------|
Eb|-0-000---0-0---0-0---0-0---0-0---0-0---0-0-----|
    * ***   * *   * *   * *   * *   * *   * *

eb|---------------------------------------------|
Bb|---------------------------------------------|
Gb|---------------------------------------------|
Db|-------0-----2-----3-----2-----0-------------|
Ab|-------------------------------------3-----2-|
Eb|-1-111---1-1---1-1---1-1---1-1---1-1---1-1---|
    * ***   * *   * *   * *   * *   * *   * *

Play Riff 4
Play Riff 5

Riff 6
Guitar 1
eb|---------------------------------------------|
Bb|---------------------------------------------|
Gb|---------------------------------------------|
Db|---------------------------------------------|
Ab|-9---11---12---12p11p9\-7---9---10---10p9p7/-|
Eb|---9----9----9------------7---7----7---------|
      *  * *  * *            * * *  * *

Guitar 2
eb|----------------------------------------------|
Bb|----------------------------------------------|
Gb|-11--13--14--14p13p11\-9---11---12---12p11p9/-|
Db|---11--11--11------------9----9----9----------|
Ab|----------------------------------------------|
Eb|----------------------------------------------|
       *   *   *            *    *    *
eb|-----------------------------------------|
Bb|-----------------------------------------|
Gb|-11--13--14--14p13p11\-9---11---12---11/-|
Db|---11--11--11------------9----9----9-----|
Ab|-----------------------------------------|
Eb|-----------------------------------------|
       *   *   *            *    *    *


Riff 6a (Solo Rhythm)
eb|---------------------------------------------|
Bb|---------------------------------------------|
Gb|---------------------------------------------|
Db|---------------------------------------------|
Ab|-9---11---12---12p11p9\-7---9---10---10p9p7/-|
Eb|---9----9----9------------7---7----7---------|
      *  * *  * *            * * *  * *

Solo
eb|---------------------------------------|
Bb|---------------------------------------|
Gb|---------------------------------------|
Db|---------------------------------------|
Ab|---------------------------------------|
Eb|---------------------------------------|

eb|---------------------------------------|
Bb|---------------------------------------|
Gb|---------------------------------------|
Db|---------------------------------------|
Ab|---------------------------------------|
Eb|---------------------------------------|

End Solo


Riff 7
Guitar 1
eb|---------------7p6-----|---------------6p5-----|
Bb|-----------7p6-----7p6-|-----------6p5-----6p5-|
Gb|-----------------------|-----------------------|
Db|---------8--(8)--------|---------7--(7)--------|
Ab|-6-666-6-6--(6)--------|-5-555-5-5--(5)--------|
Eb|-----------------------|-----------------------|
    * *** *                 * *** *

Guitar 2
eb|---------------------------------------|
Bb|---------------------------------------|
Gb|---------------------------------------|
Db|---------------------------------------|
Ab|---------------------------------------|
Eb|---------------------------------------|

Guitar 3
eb|---------------------------------------|
Bb|---------------------------------------|
Gb|---------------------------------------|
Db|---------------------------------------|
Ab|---------------------------------------|
Eb|---------------------------------------|


                          
Riff 8 (Solo Rhythm)
eb|-------------------------------|
Bb|-------------------------------|
Gb|-------------------------------|
Db|------8----8-8-------8--8-10-8-|
Ab|-6666-6--6-6-6--6666-6--6--8-6-|
Eb|-------------------------------|
    ****    *      ****    *  *     
eb|-----------------------------------|
Bb|-----------------------------------|
Gb|-----------------------------------|
Db|------7----7-7-------7-----7-7-5-7-|
Ab|-5555-5--5-5-5--5555-5--55-5-5-3-5-|
Eb|-----------------------------------|
    ****    *      ****    ** * * * * 

Riff 9 (Solo Rhythm)
eb|--------------------------------------|
Bb|--------------------------------------|
Gb|--------------------------------------|
Db|------8------8----8-------8------10-8-|
Ab|-6666-6-6666-6-66-6--6666-6-6666--8-6-|
Eb|--------------------------------------|
    ****   ****   **    ****   **** 
eb|---------------------------------------|
Bb|---------------------------------------|
Gb|---------------------------------------|
Db|------7------7----7-------7----7-7-5-7-|
Ab|-5555-5-5555-5-55-5--5555-5-55-5-5-3-5-|
Eb|---------------------------------------|
    ****   ****   **    ****   ** * * * *

Solo
eb|---------------------------------------|
Bb|---------------------------------------|
Gb|---------------------------------------|
Db|---------------------------------------|
Ab|---------------------------------------|
Eb|---------------------------------------|

eb|---------------------------------------|
Bb|---------------------------------------|
Gb|---------------------------------------|
Db|---------------------------------------|
Ab|---------------------------------------|
Eb|---------------------------------------|

eb|---------------------------------------|
Bb|---------------------------------------|
Gb|---------------------------------------|
Db|---------------------------------------|
Ab|---------------------------------------|
Eb|---------------------------------------|

eb|---------------------------------------|
Bb|---------------------------------------|
Gb|---------------------------------------|
Db|---------------------------------------|
Ab|---------------------------------------|
Eb|---------------------------------------|

End Solo



Riff 10
Guitar 1
eb|-----------------------|
Bb|-----------------------|
Gb|-----------------------|
Db|--8--------8---------8-|
Ab|--6--------6---------6-|
Eb|-----------------------|

Guitar 2
eb|-----11-10-----------------------|
Bb|------------11-12-11-------------|
Gb|---------------------11-10-------|
Db|-13------------------------13-12-|
Ab|---------------------------------|
Eb|---------------------------------|

Guitar 3
eb|------------------------|
Bb|------------------------|
Gb|----8-7-----------------|
Db|---------8-9-8----------|
Ab|-6--------------9-8-6-5-|
Eb|------------------------|


Riff 11
eb|----------------------------------------------|
Bb|----------------------------------------------|
Gb|------------------------------------------3-2-|
Db|-2-----------3--------2------------3--2-3-3-2-|
Ab|-0-0-0-3p2p0-1--/12\--0--0-0-3p2p0-1----------|
Eb|----------------------------------------------|


Riff 12
eb|-----------------------------|
Bb|-----------------------------|
Gb|-----------------------------|
Db|-----------------------------|
Ab|-7---------------------------|
Eb|-5-5-555-555-555-555-555-555-|
      * *** *** *** *** *** ***
eb|------------------------|
Bb|------------------------|
Gb|------------------------|
Db|------------------------|
Ab|-8-7---------------10-8-|
Eb|-6-5-5-555-555-555--8-6-|
        * *** *** ***

Riff 12a
eb|-----------------------------|
Bb|-----------------------------|
Gb|-----------------------------|
Db|-----------------------------|
Ab|-7---------------------------|
Eb|-5-5-555-555-555-555-555-555-|
      * *** *** *** *** *** ***
   "Forced power..."
eb|---------------------------|
Bb|---------------------------|
Gb|---------------------------|
Db|---------------------------|
Ab|-8-7---------------10-8--8-|
Eb|-6-5-5-555-555-555--8-6--6-|
        * *** *** ***

Riff 13
eb|----------------------|
Bb|----------------------|
Gb|----------------------|
Db|--------3-2-------0-2-|
Ab|-2------3-2-------0-2-|
Eb|-0-0000------0000-----|
      ****      ****
eb|------------------------|
Bb|------------------------|
Gb|------------------------|
Db|------3-----------------|
Ab|------3--2-22-0-2-0-----|
Eb|-0000---------------3-3-|
    ****    * ** *   * * *
eb|----------------------|
Bb|----------------------|
Gb|----------------------|
Db|--------3-2-------0-2-|
Ab|-2------3-2-------0-2-|
Eb|-0-0000------0000-----|
      ****      ****
eb|-----------------------------|
Bb|-----------------------------|
Gb|-----------------------------|
Db|-----------------------------|
Ab|-----------------------------|
Eb|-0-0-000-000-000-000-000-000-|
    * * *** *** *** *** *** *** 

Play Riff 12a  "The chosen one..."

Riff 13a
eb|----------------------|
Bb|----------------------|
Gb|----------------------|
Db|--------3-2-------0-2-|
Ab|-2------3-2-------0-2-|
Eb|-0-0000------0000-----|
      ****      ****
eb|------------------------|
Bb|------------------------|
Gb|------------------------|
Db|------3-----------------|
Ab|------3--2-22-0-2-0-----|
Eb|-0000---------------3-3-|
    ****    * ** *   * * *

Riff 13b
eb|-------------------------|
Bb|-------------------------|
Gb|-------------------------|
Db|--------10-9---------7-9-|
Ab|-2-------8-7---------5-7-|
Eb|-0-0000------0-000-0-----|
      ****      * *** *
eb|-------------------------|
Bb|-------------------------|
Gb|-------------------------|
Db|------10-----------------|
Ab|-------8--2-22-0-2-0-----|
Eb|-0000----------------3-3-|
    ****     * ** *   * * *
eb|-------------------------|
Bb|-------------------------|
Gb|-------------------------|
Db|--------10-9---------7-9-|
Ab|-2-------8-7---------5-7-|
Eb|-0-0000------0-000-0-----|
      ****      * *** *
eb|-------------------------|
Bb|-------------------------|
Gb|-------------------------|
Db|------10-----------------|
Ab|-------8--2-22-0-2-0-----|
Eb|-0000----------------3-0-|
    ****     * ** *   * * *

Play Riff 2   "Temptation befell me..."
Play Riff 3   "This is the path..."

Riff 14           x2
eb|----------------|--------------------------------|
Bb|----------------|--------------------------------|
Gb|----------------|--------------------------------|
Db|-4--4--4--2-4-5-|-7--7--7--7-5-7--4--4--4--2-4-5-|
Ab|-2--2--2--0-2-3-|-5--5--5--5-3-5--2--2--2--0-2-3-|
Eb|----------------|--------------------------------|


Riff 14a                   x2
eb|-------------------------|
Bb|-------------------------|
Gb|-------------------------|
Db|-4-----4-----4-----2-4-5-|
Ab|-2-2-2-2-2-2-2-2-2-0-2-3-|
Eb|-------------------------|
      * *   * *   * *        
eb|--------------------------------------------------|
Bb|--------------------------------------------------|
Gb|--------------------------------------------------|
Db|-7-----7-----7-----7-5-7--4-----4-----4-----2-4-5-|
Ab|-5-5-5-5-5-5-5-5-5-5-3-5--2-2-2-2-2-2-2-2-2-0-2-3-|
Eb|--------------------------------------------------|
      * *   * *   * *          * *   * *   * *

[song fades out]

-------------------------------------------------------------

4. BEFORE THE VISION
Tuning: Eb

Entire song is played with 6 string acoustics.

Riff 1
Guitar 1
eb|---------0---------------0-------|
Bb|-1---------1---1-0---------0---0-|
Gb|---2---------2-----2---------2---| 
Db|-----2---------------2-----------|  
Ab|-0-----0-------0-0-----0-------0-| 
Eb|---------------------------------|

eb|---------0---------------0-----|
Bb|-1---------1---1-0---------0---|
Gb|---2---------2-----2---------2-| 
Db|-----2---------------2---------|  
Ab|-0-----0-------0-0-----0-------| 
Eb|-------------------------------|

Guitar 2
eb|-------------------------------------8-----|
Bb|------8---------------------------------10-|
Gb|-9------9----9-7------------------9--------|
Db|-------------------10-9---10-7-------------|
Ab|-------------------------------------------|
Eb|-------------------------------------------|


Riff 2                                           
Guitar 1
eb|---------3---------------3-------|
Bb|-4---------4---4-3---------3---3-|
Gb|---5---------5-----5---------5---|
Db|-----5---------------5-----------|
Ab|-3-----3-------3-3-----3-------3-|
Eb|---------------------------------|

eb|---------3---------------3-----|
Bb|-4---------4---4-3---------3---|
Gb|---5---------5-----5---------5-|
Db|-----5---------------5---------|
Ab|-3-----3-------3-3-----3-------|
Eb|-------------------------------|

Guitar 2
eb|----------------------------------------11--8-|
Bb|-------------------------------------8--------|
Gb|------------------------------7-8-------------|
Db|-------9-------9-10----9-7--------------------|
Ab|-10------10-----------------------------------|
Eb|----------------------------------------------|


Repeat Riff 1
Repeat Riff 2

Riff 3
Guitar 1                           x4
eb|---------0---------------2-------|
Bb|-0---------0-----0---------0-----|
Gb|---0---------0-----0---------0---|
Db|-----2---------2-----2---------2-|
Ab|-------2---------------2---------|
Eb|-0-------------0-0-------------0-|
                                  
Guitar 2                       x2 
eb|-----------------------------|
Bb|--7----7h8-------8--10-------|
Gb|-----------9------------7--9-|
Db|-----------------------------|
Ab|-----------------------------|
Eb|-----------------------------|
   "Go now..."


Riff 4 (Play 2x)
Guitar 1           x3
eb|---------0-------|---------2-------|
Bb|-0---------0-----|-0---------0-----|
Gb|---0---------0---|---0---------0---|
Db|-----2---------2-|-----2---------2-|
Ab|-------2---------|-------2---------|
Eb|-0-------------0-|-0-------------0-|

Guitar 2                 x2
eb|---------------------7-|
Bb|-----12--7-------------|
Gb|--12--------7-----7----|
Db|---------------7-------|
Ab|-----------------------|
Eb|-----------------------|
     h. h.  h. h. h. h. h.
  
   "Visions will..."


Repeat riff 3   "Be strong..."
Repeat riff 4   "Visions will..."


Riff 4a (Ending of song)

Guitar 1           x2
eb|---------0-------|--2--|
Bb|-0---------0-----|--0--|
Gb|---0---------0---|--0--|
Db|-----2---------2-|--2--|
Ab|-------2---------|--2--|
Eb|-0-------------0-|--0--|

Guitar 2
eb|---------------------5-|
Bb|-----12--7-------------|
Gb|--12--------7-----7----|
Db|---------------7-------|
Ab|-----------------------|
Eb|-----------------------|
     h. h.  h. h. h. h. h.

---------------------------------------------

5. MYSTICAL END
Tuning: Eb

Riff 1
Guitar 1                  x2
eb|------------------------|
Bb|------------------------|
Gb|------------------------|
Db|-7-7-8-7-10-8-7--7-8----|
Ab|---------------------10-|
Eb|------------------------|

eb|------------------------------|
Bb|------------------------------|
Gb|------------------------------|
Db|-7-7-8-7-10-8-7--7-8-7-10-8-7-|
Ab|------------------------------|
Eb|------------------------------|

eb|----------------------|
Bb|----------------------|
Gb|----------------------|
Db|-7-8-7-10-8-7--7-8----|
Ab|-------------------10-|
Eb|----------------------|

Guitar 2
eb|--------------------------------------------|
Bb|--------------------------------------------|
Gb|--------------------------------------------|
Db|-7---------5----------3---------5---------7-|
Ab|-5---------3----------1---------3---------5-|
Eb|--------------------------------------------|

Guitar 3
eb|--------------------------------------------|
Bb|--------------------------------------------|
Gb|--------------------------------------------|
Db|-4---------2------------------------------4-|
Ab|----------------------5---------5-----------|
Eb|--------------------------------------------|


Riff 2
eb|----------------------|
Bb|----------------------|
Gb|----------------------|
Db|-7----9-10--7----9-10-|
Ab|-5----7--8--5----7--8-|
Eb|----------------------|
   "On the plains..."
eb|------------------------------|
Bb|------------------------------|
Gb|------------------------------|
Db|-5----5/7-7----7\5-5----5/7-7-|
Ab|-3----3/5-5----5\3-3----3/5-5-|
Eb|------------------------------|
   "...heard..."

Final time:
eb|-------------------------------------|
Bb|-------------------------------------|
Gb|-------------------------------------|
Db|-5----5/7-7----7\5-5----5/7-7--------|
Ab|-3----3/5-5----5\3-3----3/5-5----5p0-|
Eb|-------------------------------------|


Riff 3 (Guitar 2 plays notes in () )
eb|-----------------------------------|
Bb|-----------------------------------|
Gb|-----------------------------------|
Db|-7-----7-----7-----7-----7----7----|
Ab|-5-555-5-555-5-555-5-555-5-55-5-55-|
Eb|-----------------------------------|
      ***   ***   ***   ***   **   ** 
    "Way up in the sky..."
eb|-----------------------------------|
Bb|-----------------------------------|
Gb|---------------(4-2-4-5-4-2-4p2--)-|
Db|-5-----5-----5--5-4-5-7-5-4-5p4-4)-|
Ab|-3-333-3-333-3------------------5--|
Eb|-----------------------------------|
      ***   ***
    "...the sun is burning bright..."
eb|-----------------------------------|
Bb|-----------------------------------|
Gb|-----------------------------------|
Db|-7-----7-----7-----7-----7----7----|
Ab|-5-555-5-555-5-555-5-555-5-55-5-55-|
Eb|-----------------------------------|
      ***   ***   ***   ***   **   **
    "All the natives..." 
eb|----------------------------------|
Bb|----------------------------------|
Gb|----------------------------------|
Db|-5-----5-----5--------------------|
Ab|-3-333-3-333-3-33-6-6--666-6-6666-|
Eb|----------------------------------|
      ***   ***   ** * *  *** * ****
    "...screaming to be free..."


Play Riff 2


Riff 4                        Last time
eb|---------------------------|-----|
Bb|---------------------------|-----|
Gb|---------------------------|-----|
Db|-7--7---------5--5---------|--7--|
Ab|-5--5--77-8-7-3--3--55-6-5-|--5--|
Eb|---------------------------|-----|
          ** * *       ** * * 
   "As the moon fades away..."   
       
                              
Riff 5
Guitar 1
eb|---------------------------------|
Bb|---------------------------------|
Gb|---------------------------------|
Db|---------------------------------|
Ab|-5-555-5-555-5-555-5-555-6-666---|
Eb|-------------------------------8-|
    * *** * *** * *** * *** * *** * 
eb|------------------------------------|
Bb|------------------------------------|
Gb|------------------------------------|
Db|------------------------------------|
Ab|-5-555-5-555-5-55-6-5-6-8-6-5h6-5---|
Eb|----------------------------------6-|
    * *** * *** * **

Guitar 2 (Comes in the 2nd time)
eb|------------------|
Bb|------------------|
Gb|------------------|
Db|-7--------8----7--|
Ab|-5--------6----5--|
Eb|------------------|



Riff 6 (Solo Rhythm)
eb|---------------------------------|
Bb|---------------------------------|
Gb|---------------------------------|
Db|-7-----7-----7-----7-----8-------|
Ab|-5-555-5-555-5-555-5-555-6-666-3-|
Eb|---------------------------------|
      ***   ***   ***   ***   *** *
eb|------------------------------------|
Bb|------------------------------------|
Gb|------------------------------------|
Db|-7-----7-----7----------------------|
Ab|-5-555-5-555-5-55-6-5-6-8-6-5h6-5---|
Eb|----------------------------------6-|
      ***   ***   **  

Riff 7 (Solo Rhythm)                                  Last time
eb|---------------------------------------------------|-----|
Bb|---------------------------------------------------|-----|
Gb|---------------------------------------------------|-----|
Db|-7----7-8-8-8-7----7-8-8-8-7----7-8-8-8-7----10--8-|--7--|
Ab|-5----5-6-6-6-5----5-6-6-6-5----5-6-6-6-5-----8--6-|--5--|
Eb|---------------------------------------------------|-----|


Solo
eb|---------------------------------------|
Bb|---------------------------------------|
Gb|---------------------------------------|
Db|---------------------------------------|
Ab|---------------------------------------|
Eb|---------------------------------------|

eb|---------------------------------------|
Bb|---------------------------------------|
Gb|---------------------------------------|
Db|---------------------------------------|
Ab|---------------------------------------|
Eb|---------------------------------------|

End Solo


Riff 8
Guitar 1
eb|-----------------------------|
Bb|-----------------------------|
Gb|-----------------------------|
Db|-----4/5-5/7/8\-5\4-5\4-5/7\-|
Ab|-3/5-------------------------|
Eb|-----------------------------|

eb|----------------------------|
Bb|----------------------------|
Gb|----------------------------|
Db|-----4/5-5/7/8\--5\4-5/7----|
Ab|-3/5---------------------5\-|
Eb|----------------------------|

Guitar 2 (After two reptitions)
eb|---------------------------------|
Bb|---------------------------------|
Gb|---------------------------------|
Db|-----7/8-8/10/12\--8\7-8\7-8/10\-|
Ab|-7/9-----------------------------|
Eb|---------------------------------|

eb|-------------------------------|
Bb|-------------------------------|
Gb|-------------------------------|
Db|-----7/8-8/10/12\--8\7-8/10----|
Ab|-7/9------------------------9\-|
Eb|-------------------------------|

Guitar 3 (Last time)
eb|-------------------------------------|
Bb|-------------------------------------|
Gb|-------------------------------------|
Db|-7--------8-8-8-7--------------------|
Ab|-5--------6-6-6-5--------8-888-6-6-6-|
Eb|-------------------------------------|
                            * *** * * *


Play Riff 3  "On the day of the night..."


Riff 1a (Ending solo begins during this riff)
Guitar 1
eb|--------------------------------------------|
Bb|--------------------------------------------|
Gb|--------------------------------------------|
Db|-7---------5----------3---------5---------7-|
Ab|-5---------3----------1---------3---------5-|
Eb|--------------------------------------------|

Guitar 2
eb|--------------------------------------------|
Bb|--------------------------------------------|
Gb|--------------------------------------------|
Db|-4---------2------------------------------4-|
Ab|----------------------5---------5-----------|
Eb|--------------------------------------------|


Ending                       x2
eb|---------------------------|----------------|
Bb|---------------------------|----------------|
Gb|---------------------------|----------------|
Db|-7--7---------5--5---------|--7-----(7)--7\-|
Ab|-5--5--77-8-7-3--3--55-6-5-|--5-----(5)--5\-|
Eb|---------------------------|----------------|
          ** * *       ** * *


Ending Solo
eb|---------------------------------------|
Bb|---------------------------------------|
Gb|---------------------------------------|
Db|---------------------------------------|
Ab|---------------------------------------|
Eb|---------------------------------------|

eb|---------------------------------------|
Bb|---------------------------------------|
Gb|---------------------------------------|
Db|---------------------------------------|
Ab|---------------------------------------|
Eb|---------------------------------------|

eb|---------------------------------------|
Bb|---------------------------------------|
Gb|---------------------------------------|
Db|---------------------------------------|
Ab|---------------------------------------|
Eb|---------------------------------------|

eb|---------------------------------------|
Bb|---------------------------------------|
Gb|---------------------------------------|
Db|---------------------------------------|
Ab|---------------------------------------|
Eb|---------------------------------------|

eb|---------------------------------------|
Bb|---------------------------------------|
Gb|---------------------------------------|
Db|---------------------------------------|
Ab|---------------------------------------|
Eb|---------------------------------------|

eb|---------------------------------------|
Bb|---------------------------------------|
Gb|---------------------------------------|
Db|---------------------------------------|
Ab|---------------------------------------|
Eb|---------------------------------------|

End Solo

----------------------------------------------------

6. DESERT RAIN
Tuning: Eb

Note:  The intro has production noises throughout
that are just effects on the guitars below:


Intro   
Guitar 1
eb|-0--0--0--0--0-0-0--0--0--0--0-0-|
Bb|---------------------------------|
Gb|---------------------------------| -----|
Db|---------------------------------|      |
Ab|---------------------------------|      |
Eb|---------------------------------|      |
                                           |
eb|-7--10--8--8--8-8-7--8--7--7--7-7-|     |
Bb|----------------------------------|     |
Gb|----------------------------------|     |
Db|----------------------------------|     |
Ab|----------------------------------|     |
Eb|----------------------------------|     |
                                           |
eb|-5--7--0--0--0-0-5--7--0--0--0-0-|      |--> Play 2x
Bb|---------------------------------|      |
Gb|---------------------------------|      |
Db|---------------------------------|      |
Ab|---------------------------------|      |
Eb|---------------------------------|      |
                                           |
Guitar 2 (Delay, listen for timing)        |
eb|-----------------------9h10h12--|       |
Bb|--8--------(8)------------------|       |
Gb|-[volume swells]----------------|       |
Db|--------------------------------| ------|
Ab|--------------------------------|
Eb|--------------------------------|

                                     x2
eb|-2--3--5--3--2--3--2--0--0--0--0-0-|
Bb|-----------------------------------|
Gb|-----------------------------------|
Db|-----------------------------------|
Ab|-----------------------------------|
Eb|-----------------------------------|

eb|-7--8--7--7--7-7-5--7--5--5--5-5-|
Bb|---------------------------------|
Gb|---------------------------------|
Db|---------------------------------|
Ab|---------------------------------|
Eb|---------------------------------|

eb|-3--5--3--2--3--2--0--0--0--|
Bb|----------------------------|
Gb|----------------------------|
Db|----------------------------|
Ab|----------------------------|
Eb|----------------------------|

Guitar 3 (With effect, listen for when to come in)
                       x3
eb|---------------------|
Bb|---------------------|
Gb|---------------------|
Db|---------------------|
Ab|----------------2----|
Eb|-[silent]---0-0-0----|
               * * x2
eb|-----------------|
Bb|-----------------|
Gb|-----------------|
Db|-----------------|
Ab|------------2----|
Eb|-[silent]---0----|


Riff 1
eb|----------------------------------------|
Bb|----------------------------------------|
Gb|----------------------------------------|
Db|-----9-----12-----10----9-----10-----9--|
Ab|-----7-----10------8----7------8-----7--|
Eb|-0-0---0-0----0-0---------0-0----0-0----|
    * *   * *    * *         * *    * *

eb|---------------------------------|
Bb|---------------------------------|
Gb|---------------------------------|
Db|-7-----9----------7-----9--------|
Ab|-5-----7-----2----5-----7-----2--|
Eb|---0-0---0-0-0------0-0---0-0-0--|
      * *   * *        * *   * * 


Riff 2
eb|-------------------------------------|
Bb|-------------------------------------|
Gb|-------------------------------------| ---|
Db|-9-----12-----10-----10-----10101010-|    |
Ab|-7-----10------8------8------8-8-8-8-|    |
Eb|---0-0----0-0----0-0----0-0----------|    |
      * *    * *    * *    * *               |
eb|----------------------------------|       |
Bb|----------------------------------|       |
Gb|----------------------------------|       |
Db|-9-----10-----9-----9-----9-9-9-9-|       |--> Play 2x
Ab|-7------8-----7-----7-----7-7-7-7-|       |
Eb|---0-0----0-0---0-0---0-0---------|       |
      * *    * *   * *   * *       x2        |
eb|---------------------------------|        |
Bb|---------------------------------|        |
Gb|---------------------------------|        |
Db|-7-----9-------------------------| -------|
Ab|-5-----7-----2-------------------|
Eb|---0-0---0-0-0-000-0-000-000-000-|
      * *   * *   *** * *** *** *** 

eb|-----------------------------------|
Bb|-----------------------------------|
Gb|-----------------------------------| -----|
Db|-4-----5-----7-----5-----4---5---4-|      |
Ab|-2-----3-----5-----3-----2---3---2-|      |
Eb|---0-0---0-0---0-0---0-0---0---0---|      |
      * *   * *   * *   * *   *   *          |--> Play 2x
eb|-------------------------------|          |
Bb|-------------------------------|          |
Gb|-------------------------------|          |
Db|-------------------------------| ---------|
Ab|-----2-------------------------|
Eb|-0-0-0-0-0-0-0-0-0-0-0-0-0-0-0-|
    * *   * * * * * * * * * * * * 


Riff 3
Guitar 1
eb|---------------------------|
Bb|---------------------------|
Gb|---------------------------|
Db|---------------------------|
Ab|-2-3-2--------5--5-5\3-3-3-|
Eb|-0-1-0--0-000-3--3-3\1-1-1-|
           * ***
   "The sympathy..."
eb|-----------------------------------|
Bb|-----------------------------------|
Gb|-----------------------------------|
Db|----------------999-777-101010-----|
Ab|-2-3-2-------------------------888-|
Eb|-0-1-0--0-000-0--------------------|
           * *** * *** ***  * * * ***
   "...is growing cold..."
eb|---------------------------|
Bb|---------------------------|
Gb|---------------------------|
Db|---------------------------|
Ab|-2-3-2--------5--5-5\3-3-3-|
Eb|-0-1-0--0-000-3--3-3\1-1-1-|
           * ***
   "Life is like..."
eb|-----------------------------------|
Bb|-----------------------------------|
Gb|-----------------------------------|
Db|----------------999-777------------|
Ab|-2-3-2------------------101010-888-|
Eb|-0-1-0--0-000-0--------------------|
           * *** * *** ***  * * * ***
   "...so I'm told..."

Guitar 2
eb|---------------------------------|
Bb|---------------------------------|
Gb|---------------------------------|
Db|-9-10-9-------12--12-12\10-10-10-|
Ab|-7--8-7-7-777-10--10-10\-8--8--8-|
Eb|---------------------------------|
           * ***
   "The sympathy..."
eb|-----------------------------------|
Bb|-----------------------------------|
Gb|-----------------------------------|
Db|-9-10-9---------999-777-101010-----|
Ab|-7--8-7-7-777-7----------------888-|
Eb|-----------------------------------|
           * *** * *** ***  * * * ***
   "...is growing cold..."
eb|---------------------------------|
Bb|---------------------------------|
Gb|---------------------------------|
Db|-9-10-9-------12--12-12\10-10-10-|
Ab|-7--8-7-7-777-10--10-10\-8--8--8-|
Eb|---------------------------------|
           * ***
   "Life is like..."
eb|-----------------------------------|
Bb|-----------------------------------|
Gb|-----------------------------------|
Db|-9-10-9---------999-777------------|
Ab|-7--8-7-7-777-7---------101010-888-|
Eb|-----------------------------------|
           * *** * *** ***  * * * ***
   "...so I'm told..."


Riff 4
eb|-----------------------------|
Bb|-----------------------------|
Gb|-----------------8-----------|
Db|------999-7-9-10---10-9~--9\-|
Ab|-----------------------------|
Eb|-0-0-------------------------|
    * *
eb|----------------------------|
Bb|----------------------------|
Gb|----------------------------|
Db|------999-7-9-10-9-7--------|
Ab|---------------------8~--8\-|
Eb|-0-0------------------------|
    * *

Play Riff 3   "Through the sands..."


Play Riff 4   the second time, guitar 2 plays this:
eb|----------------------------|
Bb|-----------------8----------|
Gb|------999----8-9---9-8~--8\-|
Db|----------10----------------|
Ab|----------------------------|
Eb|-0-0------------------------|
    * *
eb|---------------------7~--|
Bb|-----------------7-8-----|
Gb|------999----8-9---------|
Db|----------10-------------|
Ab|-------------------------|
Eb|-0-0---------------------|
    * *


Riff 5
Guitar 1 (Listen to song for timing)
eb|---------------|
Bb|---------------|
Gb|---------------|
Db|---------------|
Ab|-7777777777...-|
Eb|---------------|
    **********
eb|----------------------------------------------|
Bb|----------------------------------------------|
Gb|----------------------------------------------|
Db|----------------------------------------------|
Ab|-555555555555-8888-1010101010101010-88888888--|
Eb|----------------------------------------------|
    ************ ****  * * * * * * * * ********

Final time:
eb|----------------------------------------------|
Bb|----------------------------------------------|
Gb|----------------------------------------------|
Db|----------------------------------------------|
Ab|-555555555555-8888-1010101010101010-88888888--|
Eb|----------------------------------------------|
    ************ ****  * * * * * * * * ********
eb|--------------------|
Bb|--------------------|
Gb|--------------------|
Db|--------------------|
Ab|-7777777777...------|
Eb|---------------/15\-|
    **********

Guitar 2                           x2
eb|---------------------------------|
Bb|---------------------------------|
Gb|-13-12-10h12p10-9~---------------| -------|
Db|--------------------7-9-7h9p7-6~-|        |
Ab|---------------------------------|        |
Eb|---------------------------------|        |
                                             |--> Play 2x
eb|--------------------------------------|   |
Bb|--------------------------------------|   |
Gb|---------12~--10~--9h10-9~--9-9h10-9~-|   |
Db|-7----9-------------------------------| --|
Ab|--------------------------------------|
Eb|--------------------------------------|

eb|-------------------------------------------------|
Bb|-------------------------------------------------|
Gb|-9---------12~--10~--9h10-9~----9-9h10-9~--(9~)\-|
Db|---7----9-------------------------a----a---------|
Ab|-------------------------------------------------|
Eb|-------------------------------------------------|


Riff 6
Guitar 1

First time only:
                                       x2
eb|-------------------------------------|
Bb|-------------------------------------|
Gb|-------------------------------------|
Db|-------------------------------------|
Ab|-2-------2-------2-------------0-----|
Eb|-0-0-000-0-0-000-0-0-000-0-1-3---3-1-|
      * ***   * ***   * *** * * * * * *
    "Desert rain..."
eb|-------------------------------------|
Bb|-------------------------------------|
Gb|-------------------------------------|
Db|-7-------7-------7-------5-8-7-------|
Ab|-5-5-555-5-5-555-5-5-555-------8-7-6-|
Eb|-------------------------------------|
      * ***   * ***   * ***       * * *
    "It's calling me..."
eb|--------------------------------|
Bb|--------------------------------|
Gb|--------------------------------|
Db|-9-----------------------5--7-9-|
Ab|-7-------2-------2-------3--5-7-|
Eb|---0-000-0-0-000-0-0-000--------|
      * ***   * ***   * ***
    "...rise..."

Rest of the time:
eb|-----------------------------------|
Bb|-----------------------------------|
Gb|-----------------------------------|
Db|-----------------------------------|
Ab|-------2-------2-------------0-----|
Eb|-0-000-0-0-000-0-0-000-0-1-3---3-1-|
    * ***   * ***   * *** * * * * * *
    "Desert rain..."
eb|-------------------------------------|
Bb|-------------------------------------|
Gb|-------------------------------------|
Db|-------------------------------------|
Ab|-2-------2-------2-------------0-----|
Eb|-0-0-000-0-0-000-0-0-000-0-1-3---3-1-|
      * ***   * ***   * *** * * * * * *
   "...changing me..."
eb|-------------------------------------|
Bb|-------------------------------------|
Gb|-------------------------------------|
Db|-7-------7-------7-------5-8-7-------|
Ab|-5-5-555-5-5-555-5-5-555-------8-7-6-|
Eb|-------------------------------------|
      * ***   * ***   * ***       * * *
eb|------------------------------|
Bb|------------------------------|
Gb|------------------------------|
Db|-9-----------------------5--7-|
Ab|-7-------2-------2-------3--5-|
Eb|---0-000-0-0-000-0-0-000------|
      * ***   * ***   * ***
    "...rise..."


Guitar 2   
eb|---------------------------------------|
Bb|---------------------------------------|
Gb|-----------------------------4-6-4-----|
Db|-6-------6-------6-------6-7-------7-6-|
Ab|---------------------------------------|
Eb|---0-000---0-000---0-000---------------|
      * ***   * ***   * ***
eb|-----------------------------------|
Bb|-----------------------------------|
Gb|---------------------------4-6-4---|
Db|-------6-------6-------6-7-------7-|
Ab|-----------------------------------|
Eb|-0-000---0-000---0-000-------------|
    * ***   * ***   * ***

1st ending:
eb|---------------------|
Bb|---------------------|
Gb|---------------------|
Db|-6----7----9---12----|
Ab|---------------------|
Eb|---------------------|

eb|-------------------------------------|
Bb|-------------------------------------|
Gb|-----------------------------4-6-4---|
Db|-6-------6-------6-------6-7-------7-|
Ab|-------------------------------------|
Eb|---0-000---0-000---0-000-------------|
      * ***   * ***   * ***

2nd ending:
eb|---------------------------------------------------|
Bb|---------------------------------------------------|
Gb|---------------------------------------------------|
Db|-6----7----9---12----6--------6-------6-------5--7-|
Ab|----------------------------------------------3--5-|
Eb|------------------------0-000---0-000---0-000------|
                           * ***   * ***   * ***

Riff 7
eb|-------------------------------|
Bb|-------------------------------|
Gb|-------------------------------|
Db|---------3-----5-----6-----6-5-|
Ab|-2-2-0-0-3-0-0-5-0-0-6-0-0-6-5-|
Eb|-0-0---------------------------|
    * * * *   * *   * *   * * 


Riff 8 (Solo Rhythm)
eb|---------------------------------|
Bb|---------------------------------|
Gb|-----------------------------8\7-|
Db|-7-----7-----7-----7-----7---6\5-|
Ab|-5-555-5-555-5-555-5-555-5-0-----|
Eb|---------------------------------|
      ***   ***   ***   ***   *
eb|-----------------------------|
Bb|-----------------------------|
Gb|-----------------------------|
Db|-7-----7-----7-----7-----8-8-|
Ab|-5-555-5-555-5-555-5-555-6-6-|
Eb|-----------------------------|
      ***   ***   ***   *** 

Riff 8a (Solo Rhythm)
eb|----------------------------------|
Bb|----------------------------------|
Gb|-----------------------------10\9-|
Db|-9-----9-----9-----9-----9----8\7-|
Ab|-7-777-7-777-7-777-7-777-7-0------|
Eb|----------------------------------|
      ***   ***   ***   ***   *
eb|-------------------------------|
Bb|-------------------------------|
Gb|-------------------------------|
Db|-9-----9-----9-----9-----10-10-|
Ab|-7-777-7-777-7-777-7-777--8--8-|
Eb|-------------------------------|
      ***   ***   ***   *** 


Play Riff 8  Solo Rhythm


Solo
eb|------------------------------------------------------|
Bb|-------------------15---------------------------------|
Gb|----------12h13h14----13-12-10-10h11h12--12p11p10-----|
Db|-12h13h14-----------------------------------------12~-|
Ab|------------------------------------------------------|
Eb|------------------------------------------------------|

eb|------------------------------------------------------|
Bb|-------------------15---------------------------------|
Gb|----------12h13h14----13-12-10-10h11h12--12p11p10-12~-|
Db|-12h13h14------------------------------------------a--|
Ab|------------------------------------------------------|
Eb|------------------------------------------------------|

eb|------------------------------------------------------|
Bb|-------------------15---------------------------------|
Gb|----------12h13h14----13-12-10-10h11h12--12p11p10-----|
Db|-12h13h14-----------------------------------------12~-|
Ab|------------------------------------------------------|
Eb|------------------------------------------------------|

eb|------------------------------------------------------|
Bb|-------------------15---------------------------------|
Gb|----------12h13h14----13-12-10-10h11h12--12p11p10-12~-|
Db|-12h13h14------------------------------------------a--|
Ab|------------------------------------------------------|
Eb|------------------------------------------------------|

eb|--------------------------------------------------|
Bb|-24t0h15-22t0h17-24t0h14-20t0h15-22t0-19t0-20-0-0-|
Gb|--------------------------------------------------|
Db|--------------------------------------------------|
Ab|--------------------------------------------------|
Eb|--------------------------------------------------|

eb|--------------------------------|
Bb|-19-0-0-10-0-0-12-0-0-14-0-10-0-|
Gb|--------------------------------|
Db|--------------------------------|
Ab|--------------------------------|
Eb|--------------------------------|

eb|---------------------------------------|
Bb|-12-0-0-14-0-0-15-0-0-12-0-0-10-0-12-0-|
Gb|---------------------------------------|
Db|---------------------------------------|
Ab|---------------------------------------|
Eb|---------------------------------------|

eb|------------------------------------|
Bb|-12-0-0-15-0-0-10-0-0-14-0-0-17-17\-|
Gb|------------------------------------|
Db|------------------------------------|
Ab|------------------------------------|
Eb|------------------------------------|

Harmony part:
Guitar 1
eb|-10-13-12-13--10-13-12-13--12-15-13-15--12-15-13-15-|
Bb|----------------------------------------------------|
Gb|----------------------------------------------------|
Db|----------------------------------------------------|
Ab|----------------------------------------------------|
Eb|----------------------------------------------------|

eb|-10-13-12-13--10-13-12-13--13-17-15-17--13-17-15-17-|
Bb|----------------------------------------------------|
Gb|----------------------------------------------------|
Db|----------------------------------------------------|
Ab|----------------------------------------------------|
Eb|----------------------------------------------------|

eb|-15-19-17-19--13-17-15-17--12-15-13-15--10-13-12-13-|
Bb|----------------------------------------------------|
Gb|----------------------------------------------------|
Db|----------------------------------------------------|
Ab|----------------------------------------------------|
Eb|----------------------------------------------------|

eb|-12-15-13-15--13-17-15-17--15-19-17-19-20~-|
Bb|-------------------------------------------|
Gb|-------------------------------------------|
Db|-------------------------------------------|
Ab|-------------------------------------------|
Eb|-------------------------------------------|

Guitar 2
eb|-13-17-15-17--13-17-15-17--15-19-17-19--15-19-17-19-|
Bb|----------------------------------------------------|
Gb|----------------------------------------------------|
Db|----------------------------------------------------|
Ab|----------------------------------------------------|
Eb|----------------------------------------------------|

eb|-13-17-15-17--13-17-15-17--17-20-19-20--17-20-19-20-|
Bb|----------------------------------------------------|
Gb|----------------------------------------------------|
Db|----------------------------------------------------|
Ab|----------------------------------------------------|
Eb|----------------------------------------------------|

eb|-19-22-20-22--17-20-19-20--15-19-17-19--13-17-15-17-|
Bb|----------------------------------------------------|
Gb|----------------------------------------------------|
Db|----------------------------------------------------|
Ab|----------------------------------------------------|
Eb|----------------------------------------------------|

eb|-15-19-17-19--17-20-19-20--19-22-20-22-24~-|
Bb|-------------------------------------------|
Gb|-------------------------------------------|
Db|-------------------------------------------|
Ab|-------------------------------------------|
Eb|-------------------------------------------|

End Solo


Here's the variation Larry does on Alive in Athens:
eb|-17--16--17--17/19--17-16-17--16\-12--13-13/16--13-|
Bb|---------------------------------------------------|
Gb|---------------------------------------------------|
Db|---------------------------------------------------|
Ab|---------------------------------------------------|
Eb|---------------------------------------------------|

eb|-16--17--16--17--/19--17--19--17--16--17--16\-|
Bb|----------------------------------------------|
Gb|----------------------------------------------|
Db|----------------------------------------------|
Ab|----------------------------------------------|
Eb|----------------------------------------------|

eb|----17-15-17----17-15-17----19-17-19----19-17-19-|
Bb|-15----------15----------17----------17----------|
Gb|-------------------------------------------------|
Db|-------------------------------------------------|
Ab|-------------------------------------------------|
Eb|-------------------------------------------------|

eb|----22-20-22----22-20-22----20-19-20----20-19-20-|
Bb|-19----------19----------17----------17----------|
Gb|-------------------------------------------------|
Db|-------------------------------------------------|
Ab|-------------------------------------------------|
Eb|-------------------------------------------------|

eb|----19-17-19----17-15-17----19-17-19----17-15-17-|
Bb|-15----------14----------15----------14----------|
Gb|-------------------------------------------------|
Db|-------------------------------------------------|
Ab|-------------------------------------------------|
Eb|-------------------------------------------------|

eb|-19p15----------19p15-15-15-15-15-19p15-15-15-15-15-19b21~-|
Bb|------17---------------------------------------------------|
Gb|--------16-------------------------------------------------|
Db|----------17-----------------------------------------------|
Ab|------------19---------------------------------------------|
Eb|-----------------------------------------------------------|

End variation solo



Riff 9 (The DOP version doesn't have the gallop)
Guitar 1
eb|--------------------------------|
Bb|--------------------------------|
Gb|--------------------------------|
Db|----------7---------------------|
Ab|-7-9910-9---10-9-7-10-9-7-6-7\--|
Eb|--------------------------------|

eb|--------------------------------|
Bb|--------------------------------|
Gb|--------------------------------|
Db|----------7--------10-9-7-------|
Ab|-7-9910-9---10-9-7--------10-9\-|
Eb|--------------------------------|

Guitar 2 (Comes in the second time)
eb|---------------------------|
Bb|---------------------------|
Gb|---------5-----------------|
Db|-5-779-7---9-7-5-9-7-5-4-5-|
Ab|---------------------------|
Eb|---------------------------|
    * *** * * * * * * * * * 
eb|---------------------------|
Bb|---------------------------|
Gb|---------5-------9-7-5-----|
Db|-5-779-7---9-7-5-------9-7-|
Ab|---------------------------|
Eb|---------------------------|
    * *** * * * * * * * * * 


Riff 10
Guitar 1
eb|--------------------------------|
Bb|--------------------------------|
Gb|--------------------------------|
Db|--------------------------------|
Ab|-2------------------------------|
Eb|-0------------------------0-3-3-|
                             * * *
eb|-------------------------------|
Bb|-------------------------------|
Gb|-------------------------------|
Db|-------------------------------|
Ab|-2--------------------------5--|
Eb|-0------------------------0-3--|
                             *
eb|--------------------------------|
Bb|--------------------------------|
Gb|--------------------------------|
Db|--------------------------------|
Ab|-2------------------------------|
Eb|-0------------------------0-3-3-|
                             * * *
eb|--------------------------------|
Bb|--------------------------------|
Gb|--------------------------------|
Db|--------------------------------|
Ab|-2------------------------------|
Eb|-0------------------------0-3-3-|
                             * * *
Guitar 2                               x4
eb|-------------------------------------|
Bb|-------------------------------------|
Gb|------9-7-6-7----7-6-4-6----6-4-2-4--|
Db|-------------------------------------|
Ab|-2-----------------------------------|
Eb|-0-----------------------------------|

Guitar 3 (Comes in for the 3rd and 4th time)                                   
eb|-------------------------------------|
Bb|-----10-8-7-8----8-7-5-7----7-5-3-5--|
Gb|-------------------------------------|
Db|-------------------------------------|
Ab|-2-----------------------------------|
Eb|-0-----------------------------------|


Riff 11 (Clean)
eb|------------------------------|
Bb|------------------------------|
Gb|------------------------------|
Db|----------5---4--4--444-5-4---|
Ab|----------7---5--5----------5-|
Eb|-0--0-0-0---0-----------------|
       * * *   * 
   "A world of hate..."
eb|---------------------------|
Bb|---------------------------|
Gb|---------------------------|
Db|----------5---4--4-444-5-7-|
Ab|----------7---5--5---------|
Eb|-0--0-0-0---0--------------|
       * * *   * 


Riff 11a (Distortion)
Guitar 1
eb|--------------------------------|
Bb|--------------------------------|
Gb|--------------------------------|
Db|---------5---5-4----4-444-5-4---|
Ab|---------7---7-5----5---------5-|
Eb|-0-000-0---0--------------------|
    * *** *   * 
   "We shall rise and conquer..."
eb|------------------------------|
Bb|------------------------------|
Gb|------------------------------|
Db|---------5---5-4----4-444-5-7-|
Ab|---------7---7-5----5---------|
Eb|-0-000-0---0------------------|
    * *** *   * 

Guitar 2 (During 'the serpent rides with me')
eb|----------------------------------------|
Bb|------10-10/12----12-------10-----------|
Gb|-11-12----------9----11--12---11--9-----|
Db|------------------------------------12~-|
Ab|----------------------------------------|
Eb|----------------------------------------|

eb|-----------------------------------------|
Bb|-------10-10/12----12--------10----------|
Gb|-11-12-----------9----11--12----11-------|
Db|-----------------------------------12-9~-|
Ab|-----------------------------------------|
Eb|-----------------------------------------|

eb|----------------------------------------|
Bb|------10-10/12----12-------10-----------|
Gb|-11-12----------9----11--12---11--9-----|
Db|------------------------------------12~-|
Ab|----------------------------------------|
Eb|----------------------------------------|

eb|-------------------------------------------------|
Bb|-------10-10/12----12-12/15----15----15~-15~-15~-|
Gb|-11-12----------9-----------14----14-14~-14~-14~-|
Db|-------------------------------------------------|
Ab|-------------------------------------------------|
Eb|-------------------------------------------------|

Lead into next section:
Guitar 1
eb|-------------|
Bb|-------------|
Gb|-------------|
Db|-------------|
Ab|-------0-----|
Eb|-0-1-3---3-1-|
    * * * * * *

Guitar 2 (Slighty palm muted)
eb|-------------|
Bb|-------------|
Gb|-----4-6-4---|
Db|-6-7-------7-|
Ab|-------------|
Eb|-------------|
    * * * * * *

Play Riff 6   "Desert rain..."

Towards the end, the last part of Riff 6 is
played with this modification:
eb|---------------------------------------------|
Bb|---------------------------------------------|
Gb|---------------------------------------------|
Db|-7-------------------------------5-8-7-------|
Ab|-5-5-555-5-555-5-555-5-555-5-555-------8-7-6-|
Eb|---------------------------------------------|
      * *** * *** * *** * *** * ***       * * *  

End solo
eb|--------------------------------------|
Bb|-12--(12)/17-17~--17~--17~--17/21-21~-|
Gb|--------------------------------------|
Db|--------------------------------------|
Ab|--------------------------------------|
Eb|--------------------------------------|

eb|-----------------------|
Bb|-(21)\12-12~--12~--12~-|
Gb|-----------------------|
Db|-----------------------|
Ab|-----------------------|
Eb|-----------------------|

eb|-/14-14~--(14)/16-16~--(16)/17~--(17)\--/21~--19~--19~-|
Bb|-------------------------------------------------------|
Gb|-------------------------------------------------------|
Db|-------------------------------------------------------|
Ab|-------------------------------------------------------|
Eb|-------------------------------------------------------|

eb|-21-19-17---------------17----------|
Bb|---------21-19-17-19-21----21-19-17-|
Gb|------------------------------------|
Db|------------------------------------|
Ab|------------------------------------|
Eb|------------------------------------|

--------------------------------------------------------------

7. PURE EVIL
Tuning: Eb

Riff 1
Guitar 1                x2
eb|----------------------|
Bb|----------------------|
Gb|----------------------|
Db|-----------7-7--------|
Ab|-4----7----5-5----4-4-|
Eb|-2----5-----------2-2-|

Guitar 2                 x8
eb|-17---16---14----------|
Bb|---14---14---17-15-14--|
Gb|-----------------------|
Db|-----------------------|
Ab|-----------------------|
Eb|-----------------------|

Guitar 1                x2
eb|----------------------|
Bb|----------------------|
Gb|----------------------|
Db|------------4----5----|
Ab|-7----7--5--2----3--5-|
Eb|-5----5--3----------3-|


Guitar 2       x4            x4
eb|-17-13-------|-19-15-------|
Bb|-------17----|-------19----|
Gb|----------14-|----------16-|
Db|-------------|-------------|
Ab|-------------|-------------|
Eb|-------------|-------------|


Riff 2
eb|-----------------------------|
Bb|-----------------------------|
Gb|-----------------------------|
Db|-----------------------------|
Ab|-7---------------------5-7-8-|
Eb|-5-5-555-555-555-555-5-3-5-6-|
      * *** *** *** *** * * * *
eb|-----------------------------|
Bb|-----------------------------|
Gb|-----------------------------|
Db|-----------------------------|
Ab|-8--7---------------7------7-|
Eb|-6--5-5-555-5--6666-5-6666-5-|
         * *** *  ****   ****


Riff 3
eb|---------------------------|
Bb|---------------------------|
Gb|---------------------------|
Db|---------------------------|
Ab|-7---------------------8-8-|
Eb|-5-5-555-555-555-555-5-6-6-|
      * *** *** *** *** * 
    "Cannons pound..."
eb|--------------------------------|
Bb|--------------------------------|
Gb|--------------------------------|
Db|--------------------------------|
Ab|-8-7-------------------7------7-|
Eb|-6-5-5-555-555-5--6666-5-6666-5-|
        * *** *** *  ****   ****

Final time:
eb|----------------------------------|
Bb|----------------------------------|
Gb|----------------------------------|
Db|----------------------------------|
Ab|-8-7-------------------7------7---|
Eb|-6-5-5-555-555-5--6666-5-6666-5-0-|
        * *** *** *  ****   ****   *


Riff 4
eb|--------------------------------------------|
Bb|--------------------------------------------|
Gb|--------------------------------------------|
Db|--------------------------------------------|
Ab|-10----9----8--8--8-8-7---------------------|
Eb|--8----7----6--6--6-6-5-5-555-555-555-555-5-|
                           * *** *** *** *** * 
  "The seeds of hate..."
eb|-------------------------------------|
Bb|-------------------------------------|
Gb|-------------------------------------|
Db|-------------------------------------|
Ab|-5-7-8-8--7---------------7------7---|
Eb|-3-5-6-6--5-5-555-5--6666-5-6666-5-0-|
    * * *      * *** *  ****   ****   *
eb|--------------------------------------------|
Bb|--------------------------------------------|
Gb|--------------------------------------------|
Db|--------------------------------------------|
Ab|-10----9----8--8--8-8-7---------------------|
Eb|--8----7----6--6--6-6-5-5-555-555-555-555-5-|
                           * *** *** *** *** * 
  "The seeds of hate..."
eb|-----------------------------------|
Bb|-----------------------------------|
Gb|-----------------------------------|
Db|-----------------------------------|
Ab|-5-7-8-8--7---------------7------7-|
Eb|-3-5-6-6--5-5-555-5--6666-5-6666-5-|
    * * *      * *** *  ****   ****


Play Riff 2
Play Riff 3   "For seven years..."
Play Riff 4   "We paint the sky..."


Riff 5
Gutiar 1
eb|-------------------------------|
Bb|-------------------------------|
Gb|-------------------------------|
Db|-------------3h5-----8---5---7-|
Ab|-0-0-0-000-0-----0-0---0---0---|
Eb|-------------------------------|
    * * * *** *     * *   *   *    
eb|-------------------------------|
Bb|-------------------------------|
Gb|-------------------------------|
Db|-------------3h5-----8---7---5-|
Ab|-0-0-0-000-0-----0-0---0---0---|
Eb|-------------------------------|
    * * * *** *     * *   *   * 

Guitar 2 (slight palm mutes)
eb|---------------------------------|
Bb|-----------------8-8-6-----------|
Gb|-------------7-7-------7-7-7-6-6-|
Db|-8-8-8-7-7-7---------------------|
Ab|---------------------------------|
Eb|---------------------------------|

eb|---------------------------------------|
Bb|-------------------------10-10-10-8-8\-|
Gb|-------------7-7-12-10-9---------------|
Db|-8-8-8-7-7-7---------------------------|
Ab|---------------------------------------|
Eb|---------------------------------------|

eb|---------------------------------|
Bb|-----------------8-8-6-6---------|
Gb|-------------7-7---------7-7-6-6-|
Db|-8-8-8-7-7-7---------------------|
Ab|---------------------------------|
Eb|---------------------------------|

eb|---------------------------------------|
Bb|-------------------------10-10-10-8-8\-|
Gb|-------------7-7-12-10-9---------------|
Db|-8-8-8-7-7-7---------------------------|
Ab|---------------------------------------|
Eb|---------------------------------------|

eb|---------------------------------|
Bb|-----------------8-8-6-----------|
Gb|-------------7-7-------7-7-7-6-6-|
Db|-8-8-8-7-7-7---------------------|
Ab|---------------------------------|
Eb|---------------------------------|

eb|--------------------------------------|
Bb|-------------------------10-10-8-8-8\-|
Gb|-------------7-7-12-10-9--------------|
Db|-8-8-8-7-7-7--------------------------|
Ab|--------------------------------------|
Eb|--------------------------------------|

eb|---------------------------------|
Bb|-----------------8-8-6-----------|
Gb|-------------7-7-------7-7-7-6-6-|
Db|-8-8-8-7-7-7---------------------|
Ab|---------------------------------|
Eb|---------------------------------|

eb|---------------------------------------|
Bb|-------------------------10-10-10-8-8/-|
Gb|-------------7-7-12-10-9---------------|
Db|-8-8-8-7-7-7---------------------------|
Ab|---------------------------------------|
Eb|---------------------------------------|


Riff 6
Guitar 1                       x3
eb|-----------------------------|
Bb|-----------------------------|
Gb|-----------------------------|
Db|-------9--7-3----------------|
Ab|-0-000-7--5-3--0-000-222-0-6-|
Eb|---------------------------4-|
    * ***         * *** *** *
eb|---------------------------|
Bb|---------------------------|
Gb|---------------------------|
Db|-------9--7-3--------------|
Ab|-0-000-7--5-3--0-000-222-0-|
Eb|---------------------------|
    * ***         * *** *** *

Guitar 2                                  x3
eb|---------12-----------------------------|
Bb|-13-10-------13-----13-10---121212-10-9-|
Gb|-------9--------10--------9-------------|
Db|----------------------------------------|
Ab|----------------------------------------|
Eb|----------------------------------------|

eb|---------12---------------------------|
Bb|-13-10-------13-----13-10---121212-10-|
Gb|-------9--------10--------9-----------|
Db|--------------------------------------|
Ab|--------------------------------------|
Eb|--------------------------------------|


Lead into next section (Clean):
eb|------0-|
Bb|-----0--|
Gb|----9---|
Db|---9----|
Ab|--7-----|
Eb|-0------|
  

Riff 7
Guitar 1 (Clean)                      x3
eb|------------------------------------|
Bb|------------------------------------|
Gb|------------------------------------|
Db|------------------------------------|
Ab|--8--7--12--8--7-6-7---7--7-8-7---7-|
Eb|------------------------------------|

eb|--------------|
Bb|--------------|
Gb|--------------|
Db|--------------|
Ab|--8--7--12--8-|
Eb|--------------|

Guitar 2 (Distortion)
eb|-13--12--17--13--12-11-12----12-13-12-|
Bb|--------------------------------------|
Gb|--------------------------------------|
Db|--------------------------------------|
Ab|--------------------------------------|
Eb|--------------------------------------|

eb|-13--12--17--13-|
Bb|----------------|
Gb|----------------|
Db|----------------|
Ab|----------------|
Eb|----------------|

Guitar 3 (Distortion)
eb|-17--15--20--17--15-14-15----15-17-15-|
Bb|--------------------------------------|
Gb|--------------------------------------|
Db|--------------------------------------|
Ab|--------------------------------------|
Eb|--------------------------------------|

eb|-17--15--20--17-|
Bb|----------------|
Gb|----------------|
Db|----------------|
Ab|----------------|
Eb|----------------|


Lead into next section:
(Distortion)
eb|------------------------------------|
Bb|------------------------------------|
Gb|------------------------------------|
Db|-9-8-9------------9-10-9------------|
Ab|-7-6-7------------7--8-7------------|
Eb|-------000-0-0000--------000-0-0000-|
          *** * ****        *** * ****


Riff 8 (Play 4x)
eb|------------------------------------|
Bb|------------------------------------|
Gb|------------------------------------|
Db|-10-------9-------14-------10-------|
Ab|--8-------7-------12--------8-------|
Eb|----0-0-0---000-0----0-0-0----0-0-0-|
       * * *   *** *    * * *    * * *  
   "Feel the pain from the jackals wrath..."
eb|------------------------------------|
Bb|------------------------------------|
Gb|------------------------------------|
Db|-9-8-9------------9-10-9------------|
Ab|-7-6-7------------7--8-7------------|
Eb|-------000-0-0000--------000-0-0000-|
          *** * ****        *** * ****


Riff 8a (Play 2x)
eb|------------------------------------|
Bb|------------------------------------|
Gb|------------------------------------|
Db|-10-------9-------14-------10-------|
Ab|--8-------7-------12--------8-------|
Eb|----0-0-0---000-0----0-0-0----000-0-|
       * * *   *** *    * * *    *** *  
   "Hear the ghost of..."
eb|------------------------------------|
Bb|------------------------------------|
Gb|------------------------------------|
Db|-9-8-9------------9-10-9------------|
Ab|-7-6-7------------7--8-7------------|
Eb|-------000-0-0000--------000-0-0000-|
          *** * ****        *** * ****


Riff 9 (Solo Rhythm)
First time:
eb|--------------------------------|
Bb|--------------------------------|
Gb|--------------------------------|
Db|--------------------------------|
Ab|-3----3-2-----------------------|
Eb|-1-00-1-0--0-000-0-000-0-000-00-|
      ** *    * *** * *** * *** ** 
eb|--------------------------------|
Bb|--------------------------------|
Gb|--------------------------------|
Db|--------------------------------|
Ab|-3----3-5-----------------------|
Eb|-1-00-1-3--3-333-3-333-3-333-00-|
    * ** *    * *** * *** * *** **

Rest of the time:
eb|--------------------------------|
Bb|--------------------------------|
Gb|--------------------------------|
Db|--------------------------------|
Ab|-3----3-2-----------------------|
Eb|-1-00-1-0--0-000-0-000-0-000-00-|
    * ** *    * *** * *** * *** ** 
eb|--------------------------------|
Bb|--------------------------------|
Gb|--------------------------------|
Db|--------------------------------|
Ab|-3----3-5-----------------------|
Eb|-1-00-1-3--3-333-3-333-3-333-00-|
    * ** *    * *** * *** * *** **

Final time:
eb|--------------------------|
Bb|--------------------------|
Gb|--------------------------|
Db|--------------------------|
Ab|-3----3-5---------------5-|
Eb|-1-00-1-3--3-333-3-33-0-3-|
    * ** *    * *** * ** * *


Solo
eb|-21p19p17----------21p19p17----------|
Bb|----------17h19h21----------21p19p17-|
Gb|-------------------------------------|
Db|-------------------------------------|
Ab|-------------------------------------|
Eb|-------------------------------------|

eb|-21p19p17----------21p19p17-------------|
Bb|----------17h19h21----------21p19p17\15-|
Gb|----------------------------------------|
Db|----------------------------------------|
Ab|----------------------------------------|
Eb|----------------------------------------|
                                       x2
eb|-19p17p15----------19p17p15----------|
Bb|----------15h17h19----------19p17p15-|
Gb|-------------------------------------|
Db|-------------------------------------|
Ab|-------------------------------------|
Eb|-------------------------------------|

Repeat the above, then:
                                               x2
eb|-0h17h19h21-0h17h19h21-0h17h19h21-0h17h19h21-|
Bb|---------------------------------------------|
Gb|---------------------------------------------|
Db|---------------------------------------------|
Ab|---------------------------------------------|
Eb|---------------------------------------------|
                                               x2
eb|-0h15h17h19-0h15h17h19-0h15h17h19-0h15h17h19-|
Bb|---------------------------------------------|
Gb|---------------------------------------------|
Db|---------------------------------------------|
Ab|---------------------------------------------|
Eb|---------------------------------------------|
                                               x2
eb|-0h17h19h21-0h17h19h21-0h17h19h21-0h17h19h21-|
Bb|---------------------------------------------|
Gb|---------------------------------------------|
Db|---------------------------------------------|
Ab|---------------------------------------------|
Eb|---------------------------------------------|

eb|-0h15h17h19-0h15h17h19-0h15h17h19-----------------|
Bb|----------------------------------0-24----(24)d21-|
Gb|------------------------------------24----(24)d21-|
Db|-------------------------------------h------------|
Ab|--------------------------------------------------|
Eb|--------------------------------------------------|


Guitar 2
eb|-24p22p21----------24p22p21----------|
Bb|----------21h22h24----------24p22p21-|
Gb|-------------------------------------|
Db|-------------------------------------|
Ab|-------------------------------------|
Eb|-------------------------------------|

eb|-24p22p21----------24p22p21-------------|
Bb|----------21h22h24----------24p22p21\19-|
Gb|----------------------------------------|
Db|----------------------------------------|
Ab|----------------------------------------|
Eb|----------------------------------------|
                                       x2
eb|-22p20p19----------22p20p19----------|
Bb|----------19h20h22----------22p20p19-|
Gb|-------------------------------------|
Db|-------------------------------------|
Ab|-------------------------------------|
Eb|-------------------------------------|

Repeat the above, then:
                                               x2
eb|-0h21h22h24-0h21h22h24-0h21h22h24-0h21h22h24-|
Bb|---------------------------------------------|
Gb|---------------------------------------------|
Db|---------------------------------------------|
Ab|---------------------------------------------|
Eb|---------------------------------------------|
                                               x2
eb|-0h19h20h22-0h19h20h22-0h19h20h22-0h19h20h22-|
Bb|---------------------------------------------|
Gb|---------------------------------------------|
Db|---------------------------------------------|
Ab|---------------------------------------------|
Eb|---------------------------------------------|
                                               x2
eb|-0h21h22h24-0h21h22h24-0h21h22h24-0h21h22h24-|
Bb|---------------------------------------------|
Gb|---------------------------------------------|
Db|---------------------------------------------|
Ab|---------------------------------------------|
Eb|---------------------------------------------|

eb|-0h19h20h22-0h19h20h22-0h19h20h22------------------|
Bb|----------------------------------0--24----(24)d21-|
Gb|-------------------------------------24----(24)d21-|
Db|--------------------------------------h------------|
Ab|---------------------------------------------------|
Eb|---------------------------------------------------|

End Solo



Riff 10
Guitar 1                  x4  
eb|------------------------|------------|
Bb|------------------------|------------|
Gb|------------------------|------------|
Db|-3-2-3--2-----3-2-3--5--|--7-10-7-10-|
Ab|------------------------|--5--8-5--8-|
Eb|------------------------|------------|

Guitar 2                  x4  
eb|------------------------|------------|
Bb|------------------------|------------|
Gb|-5-4-5--4-----5-4-5--7--|------------|
Db|------------------------|--7-10-7-10-|
Ab|------------------------|--5--8-5--8-|
Eb|------------------------|------------|


Riff 11 (Solo Rhythm, Play 2x)
eb|---------------------------------|
Bb|---------------------------------|
Gb|---------------------------------|
Db|-9-------9-------9-------9-------|
Ab|-7-7-7-7-7-7-7-7-7-7-7-7-7-7-7-7-|
Eb|---------------------------------|
      * * *   * * *   * * *   * * *
eb|-----------------------------|
Bb|-----------------------------|
Gb|-----------------------------|
Db|-9-------9-------------------|
Ab|-7-7-7-7-7-7-7-8-7-8-10--8-7-|
Eb|-----------------------------|
      * * *   * *
eb|---------------------------------|
Bb|---------------------------------|
Gb|---------------------------------|
Db|-7-------7-------7-------7-------|
Ab|-5-5-5-5-5-5-5-5-5-5-5-5-5-5-5-5-|
Eb|---------------------------------|
      * * *   * * *   * * *   * * *
eb|-----------------------------|
Bb|-----------------------------|
Gb|-----------------------------|
Db|-----------------------------|
Ab|-8-------8-----7--------7--7-|
Eb|-6-6-6-6-6-6-6-5--5-5-5-5--5-|
      * * *   * *    * * *


Riff 11a (Solo Rhythm)
eb|---------------------------------|
Bb|---------------------------------|
Gb|---------------------------------|
Db|---------------------------------|
Ab|-2-------------------------------|
Eb|-0-0-0-0-0-0-0-0-0-0-0-0-0-0-0-0-|
      * * * * * * * * * * * * * * *
eb|-----------------------------|
Bb|-----------------------------|
Gb|-----------------------------|
Db|-----------------------------|
Ab|---------------8-7-8-10--8-7-|
Eb|-0-0-0-0-0-0-0---------------|
    * * * * * * *
eb|---------------------------------|
Bb|---------------------------------|
Gb|---------------------------------|
Db|-7-------7-------7-------7-------|
Ab|-5-5-5-5-5-5-5-5-5-5-5-5-5-5-5-5-|
Eb|---------------------------------|
      * * *   * * *   * * *   * * *
eb|---------------------------|
Bb|---------------------------|
Gb|---------------------------|
Db|-----------------7-10-7-10-|
Ab|-8-------8-------5--8-5--8-|
Eb|-6-6-6-6-6-6-6-6-----------|
      * * *   * * *


Solo
Guitar 1
eb|-------------------------------------|
Bb|-------------------------------------|
Gb|-----------------------------9-9-9-9-|
Db|---------------------9-9-9-9---------|
Ab|-7-7-7-7-10-10-10-10-----------------|
Eb|-------------------------------------|
    * * * *  *  *  *  * * * * * * * * * 
eb|---------------------------------------|
Bb|-13-----12-----13-----12-----13---12---|
Gb|----9-9----9-9----9-9----9-9----9----9-|
Db|---------------------------------------|
Ab|---------------------------------------|
Eb|---------------------------------------|
       * *    * *    * *    * *    *    *
eb|-------------------------------------------------------|
Bb|-/15----14-13--------0-0-11-----11-----10--------------|
Gb|--------------14~--------13b15--13b15--12b14~--(14)r12-|
Db|-------------------------------------------------------|
Ab|-------------------------------------------------------|
Eb|-------------------------------------------------------|

Repeat above 3 times, but last time use this
as ending:
eb|-------------------------10-----10------12-----|
Bb|-/15----14-13--------0-0-13b15--13b15~--15b17~-|
Gb|--------------14~------------------------------|
Db|-----------------------------------------------|
Ab|-----------------------------------------------|
Eb|-----------------------------------------------|

Guitar 2
eb|-----------------------------------------|
Bb|-----------------------------------------|
Gb|---------------------9-9-9-9-12-12-12-12-|
Db|-------------9-9-9-9---------------------|
Ab|-10-10-10-10-----------------------------|
Eb|-----------------------------------------|
     *  *  *  * * * * * * * * *  *  *  *  * 
eb|-------------------------------------------------|
Bb|-17-------15-------17-------15-------17----15----|
Gb|----12-12----12-12----12-12----12-12----12----12-|
Db|-------------------------------------------------|
Ab|-------------------------------------------------|
Eb|-------------------------------------------------|
        *  *     *  *     *  *     *  *     *     *
eb|-------------------------13-----13-----10--------------|
Bb|-/18----17-15--------0-0-16b18--16b18--13b15~--(15)r13-|
Gb|--------------17~--------------------------------------|
Db|-------------------------------------------------------|
Ab|-------------------------------------------------------|
Eb|-------------------------------------------------------|

Repeat above 3 times, but last time use this
as ending:
eb|-------------------------13-----13------15-----|
Bb|-/18----17-15--------0-0-16b18--16b18~--18b20~-|
Gb|--------------17~------------------------------|
Db|-----------------------------------------------|
Ab|-----------------------------------------------|
Eb|-----------------------------------------------|

End solo


Riff 12
eb|-------------------------------------------|
Bb|-------------------------------4-444-5-555-|
Gb|-------------------5-555-4-444-------------|
Db|-------5-555-4-444-------------------------|
Ab|-7-777-------------------------------------|
Eb|-------------------------------------------|

eb|------------------------------|
Bb|------------------------------|
Gb|-4-444-5-555-5-555-4-444-8\-0-|
Db|------------------------------|
Ab|------------------------------|
Eb|------------------------------|


Play Riff 2
Play Riff 3    "The land on Earth..."
Play Riff 4    "We paint the sky..."
NOTE: End Riff 4 with an additional open Eb note.

Play Riff 1
Play Riff 2

Ending
eb|------------------------------------|
Bb|------------------------------------|
Gb|------------------------------------|
Db|-10-------9-------14-------10-------|
Ab|--8-------7-------12--------8-------|
Eb|----0-0-0---0-0-0----0-0-0----0-0-0-|
       * * *   * * *    * * *    * * *
eb|----------------------------------|
Bb|----------------------------------|
Gb|----------------------------------|
Db|-9-8-9-----------9-10-9-----------|
Ab|-7-6-7-----------7--8-7-----------|
Eb|-------000-0-000--------000-0-000-|
          *** * ***        *** * ***

Final time:
eb|------------------------------------------|
Bb|------------------------------------------|
Gb|------------------------------------------|
Db|-10-------9-------14-------10-------9-8-9-|
Ab|--8-------7-------12--------8-------7-6-7-|
Eb|----0-0-0---0-0-0----0-0-0----0-0-0-------|
       * * *   * * *    * * *    * * *

------------------------------------------------------------

8. REACHING THE END
Tuning: Eb

Entire song is played with 6 string acoustics.

Riff 1                             x4
eb|---------7---------------7-------|
Bb|-------0---0-----------0---0-----|
Gb|-----0-------0-------0-------0---|
Db|---5---------------5-------------|
Ab|-7-------------7-6-------------6-|
Eb|---------------------------------|


Riff 2
eb|---------------------------------|
Bb|---------------------------------|
Gb|-----7-----7-----6-----6-----6---|
Db|---4---4-----4-----4-----4-----4-|
Ab|-5-------5-----5-----5-----5-----|
Eb|---------------------------------|
   "Now I feel..."
eb|---------------------------------|
Bb|---------------------------------|
Gb|-----7-----7-----6-----6-----6---|
Db|---4---4-----4-----4-----4-----4-|
Ab|-5-------5-----5-----5-----5-----|
Eb|---------------------------------|
   "...reached the end..."
eb|---------------------------------|
Bb|---------------------------------|
Gb|-----5-----5-----4-----0-----0---|
Db|---2---2-----2-----2-----2-----2-|
Ab|-3-------3-----3-----3-----3-----|
Eb|---------------------------------|
   "...end of my quest..."
eb|---------------------------------|
Bb|---------------------------------|
Gb|-----5-----5-----4-----0-----0---|
Db|---2-----2---2-----2-----2-----2-|
Ab|-3-----3-------3-----3-----3-----|
Eb|---------------------------------|
   "...close at hand..."

Riff 3 
Guitar 1
eb|------------------------------|
Bb|------------------------------|
Gb|-----2-----2-------2---/5--4--|
Db|---2---2-----2---3---3--------|
Ab|-0-------0-----0--------------|
Eb|------------------------------|
     "I've reached the end..."

Guitar 2
eb|-----------------------1/3--1--0-|
Bb|---------------------------------|
Gb|-----2-----2-------2-------------|
Db|---2---2-----2---3---3-----------|
Ab|-0-------0-----0-----------------|
Eb|---------------------------------|

Play Riff 2   "And as my life..."
Play Riff 3   "I've reached the end..."

Ending
eb|---------|
Bb|---------|
Gb|-----2---|
Db|---2---2-|
Ab|-0-------|
Eb|---------|

----------------------------------------------------

9. TRAVEL IN STYGIAN
Tuning: Eb

Riff 1
Guitar 1
eb|-------------------------|
Bb|-------------------------|
Gb|-------------------------|
Db|-------------------------|
Ab|-------4-444-2-222-5-555-|
Eb|-2-222-------------------|
    * *** * *** * *** * ***
eb|-------------------------|
Bb|-------------------------|
Gb|-------------------------|
Db|-------------------------|
Ab|-------4-444-2-222-3-2---|
Eb|-2-222-----------------3-|
    * *** * *** * *** * * *

Guitar 2 (After awhile)
eb|--------------------------------------|
Bb|--------------------------------------|
Gb|--------------------------------------|
Db|--------------------------------------|
Ab|-4----------7-----------5-----------4-|
Eb|-2----------5-----------3-----------2-|


Riff 2
Guitar 1
eb|-------------------------------------------|
Bb|-------------------------------------------|
Gb|-------------------------------------------|
Db|-------------------------------------------|
Ab|-4--------5--------4-------------7-------5-|
Eb|-2----2-0-3----3-0-2----2-0-5555-5--3333-3-|
         * *      * *      * * ****    **** 

Guitar 2
eb|------------------------------------|
Bb|----7-------------------8-7---------|
Gb|------6--5h6p5h6p5p0---------8-7----|
Db|-4-------------------5-----------8\-|
Ab|------------------------------------|
Eb|------------------------------------|

eb|------------------------------------|
Bb|----7-------------------------------|
Gb|------6--5h6p5h6p5p0----------------|
Db|-4-------------------7777-7--5555-5-|
Ab|------------------------------------|
Eb|------------------------------------|
                        ****    ****

Riff 3
Guitar 1                           x2
eb|---------------------------------|
Bb|---------------------------------|
Gb|---------------------------------|
Db|---------------------------------|
Ab|-----4-----2---5---4-----4-5-4---|
Eb|-2-2---222---2---2---222-------5-|
    * *   ***   *   *   ***        x2
eb|---------------------------------|
Bb|---------------------------------|
Gb|---------------------------------|
Db|---------------------------------|
Ab|-----5-----3---6---5-----5-6-5---|
Eb|-3-3---333---3---3---333-------6-|
    * *   ***   *   *   ***

Guitar 2 (after three reptitions of the above riff)
                                   x2
eb|---------------------------------|
Bb|---------------------------------|
Gb|---------------------------------|
Db|-----4-----2---5---4-----4-5-4---|
Ab|-------------------------------5-|
Eb|-2-2---222---2---2---222---------|
    * * * *** * * * * * *** * * * *
                                   x2
eb|---------------------------------|
Bb|---------------------------------|
Gb|---------------------------------|
Db|-----5-----3---6---5-----5-6-5---|
Ab|-------------------------------6-|
Eb|-3-3---333---3---3---333---------|
    * * * *** * * * * * *** * * * *


Riff 4
eb|---------------------------|
Bb|---------------------------|
Gb|---------------------------|
Db|---------------------------|
Ab|---------4-------7-------5-|
Eb|-2-2-2-2-2--5555-5--3333-3-|
    * * * *    ****    ****
eb|---------------------------|
Bb|---------------------------|
Gb|---------------------------|
Db|---------------------------|
Ab|---------4-------7-------5-|
Eb|-2-222-2-2--5555-5--3333-3-|
    * *** *    ****    ****


Riff 3a                            x2
eb|---------------------------------|
Bb|---------------------------------|
Gb|---------------------------------|
Db|---------------------------------|
Ab|-----4-----2---5---4-----4-5-4---|
Eb|-2-2---2-2---2---2---2-2-------5-|
    * *   * *   *   *   * *
   "Through the flames..."         x2
eb|---------------------------------|
Bb|---------------------------------|
Gb|---------------------------------|
Db|---------------------------------|
Ab|-----5-----3---6---5-----5-6-5---|
Eb|-3-3---3-3---3---3---3-3-------6-|
    * *   * *   *   *   * *


Play Riff 4


Riff 5
eb|---------------------------------|
Bb|---------------------------------|
Gb|---------------------------------|
Db|---------------------------------|
Ab|-2h4-----------------------------|
Eb|-0h2-2-222-222-222-222-222-222-2-|
        * *** *** *** *** *** *** *
    "Was all of it..."
eb|-------------------------------|
Bb|-------------------------------|
Gb|-------------------------------|
Db|-------------------------------|
Ab|-2h4-------------5-7-8-7--5--7-|
Eb|-0h2-2-222-222-0-3-5-6-5--3--5-|
        * *** *** * * * * 

Riff 6
eb|------------------------------|
Bb|------------------------------|
Gb|------------------------------|
Db|------------------------------|
Ab|------4----4-4-------2----2-2-|
Eb|-2222-2--2-2-2--0000-0--0-0-0-|
    ****    *      ****    *
eb|------------------------------|
Bb|------------------------------|
Gb|------------------------------|
Db|------------------------------|
Ab|------5----5-5-------4----4-4-|
Eb|-3333-3--3-3-3--2222-2--2-2-2-|
    ****    *      ****    *
eb|---------------------------------|
Bb|---------------------------------|
Gb|---------------------------------|
Db|---------------------------------|
Ab|-2h4-----------------------------|
Eb|-0h2-2-222-222-222-222-222-222-2-|
        * *** *** *** *** *** *** *
eb|---------------------------------|
Bb|---------------------------------|
Gb|---------------------------------|
Db|---------------------------------|
Ab|-2h4-----------------------------|
Eb|-0h2-2-222-222-222-222-222-222-0-|
        * *** *** *** *** *** *** *
eb|------------------------------|
Bb|------------------------------|
Gb|------------------------------|
Db|------------------------------|
Ab|------4----4-4-------2----2-2-|
Eb|-2222-2--2-2-2--0000-0--0-0-0-|
    ****    *      ****    *
eb|------------------------------|
Bb|------------------------------|
Gb|------------------------------|
Db|------------------------------|
Ab|------5----5-5-------4----4-4-|
Eb|-3333-3--3-3-3--2222-2--2-2-2-|
    ****    *      ****    *


Riff 7
Guitar 1                           x2
eb|---------------------------------|
Bb|---------------------------------|
Gb|---------------------------------|
Db|---------------------------------|
Ab|-5\4---------------2-------------|
Eb|-3\2-2-222-222-222---2-5-2-3-2-3-|
        * *** *** ***   *   *   * * 
eb|--------------------------------|
Bb|--------------------------------|
Gb|--------------------------------|
Db|----------------------7---------|
Ab|------2-------5--5555-5-------5-|
Eb|-0000-0--3333-3----------3333-3-|
    ****    ****    ****    **** 

Guitar 2                                x2
eb|--------------------------------------|
Bb|--------------------------------------|
Gb|--------------------------------------|
Db|-12\11---------------9----------------|
Ab|-10\-9-9-999-999-999---9-12-9-10-9-10-|
Eb|--------------------------------------|
          * *** *** * *   *    *    *  * 
eb|---------------------------------------|
Bb|---------------------------------------|
Gb|---------------------------------------|
Db|------9----------12------7----------12-|
Ab|-7777-7-10101010-10-5555-5-10101010-10-|
Eb|---------------------------------------|
    ****    * * * *    ****    * * * * 


Riff 8 (Harmonics are played by bass)
Guitar 1
eb|----------------------------------------|
Bb|----------------------------------------|
Gb|----------------------------------------|
Db|-9-----5-----9-----5-----4----2----5----|
Ab|-7-----3-----7-----3-----2----0----3--5-|
Eb|-0-----------0------------------------3-|

eb|----------------------------------------|
Bb|----------------------------------------|
Gb|----------------------------------------|
Db|-9-----5-----9-----5-----4----2----5----|
Ab|-7-----3-----7-----3-----2----0----3--5-|
Eb|-0-----------0------------------------3-|
   "On the night that it came to me..."
eb|----------------------------------------|
Bb|----------------------------------------|
Gb|----------------------------------------|
Db|-9-----5-----9-----5-----4----2----5----|
Ab|-7-----3-----7-----3-----2----0----3--5-|
Eb|-0-----------0------------------------3-|

eb|----------------------|
Bb|----------------------|
Gb|----------------------|
Db|-9-----5-----9-----5--|
Ab|-7-----3-----7-----3--|
Eb|-0-----------0--------|

Guitar 2  (Clean, not on the DOP version)
eb|---------0-------0-----0-------|
Bb|-------8---8-------8------8----|
Gb|-----9-------9-------9------9--|
Db|---9-----------9---------------|
Ab|-7-----------------------------|
Eb|-------------------------------|

eb|---------0-------0-----0-------|
Bb|-------4---4-------4------4----|
Gb|-----5-------5-------5------5--|
Db|---5-----------5---------------|
Ab|-3-----------------------------|
Eb|-------------------------------|

eb|---------0-------0-----0-------|
Bb|-------8---8-------8------8----|
Gb|-----9-------9-------9------9--|
Db|---9-----------9---------------|
Ab|-7-----------------------------|
Eb|-------------------------------|

eb|---------0-------0-----0-------|
Bb|-------4---4-------4------4----|
Gb|-----5-------5-------5------5--|
Db|---5-----------5---------------|
Ab|-3-----------------------------|
Eb|-------------------------------|
(the following bar not played the final time)
eb|---------0----------------------|
Bb|-------3---3--------------------|
Gb|-----4-------4------2-----------|
Db|---4--------------2---0---2-----|
Ab|-2--------------0-------3-----2-|
Eb|----------------------------3---|


Riff 9
eb|---------------------------------|
Bb|---------------------------------|
Gb|---------------------------------|
Db|-4-4-4-4-4-4-4-4-2-2-2-2-5-5-----|
Ab|-2-2-2-2-2-2-2-2-0-0-0-0-3-3-5-5-|
Eb|-----------------------------3-3-|
      * * * * * * * * * * * * * * * 
   "...that's, when I saw my destiny."


Riff 10
eb|------------------------------|
Bb|------------------------------|
Gb|------------------------------|
Db|----------------4-5-4--9--9-9-|
Ab|---------2------2-3-2--7--7-7-|
Eb|-000-0-0-0-0000---------------|
    *** * *   ****   * *
   "Travel, in Stygian..."
eb|------------------------------|
Bb|------------------------------|
Gb|------------------------------|
Db|----------------4-5-4--9--7-7-|
Ab|---------2------2-3-2--7--5-5-|
Eb|-000-0-0-0-0000---------------|
    *** * *   ****   * *    
eb|------------------------------|
Bb|------------------------------|
Gb|------------------------------|
Db|----------------4-5-4--9--9-9-|
Ab|---------2------2-3-2--7--7-7-|
Eb|-000-0-0-0-0000---------------|
    *** * *   ****   * *
eb|---------------------------------------|
Bb|---------------------------------------|
Gb|---------------------------------------|
Db|------4------4----4------2------2----2-|
Ab|-5555-5-5555-5-55-5-3333-3-3333-3-33-3-|
Eb|---------------------------------------|
    ****   ****   **   ****   ****   **


Riff 11
Guitar 1
eb|-------------------------------|
Bb|-------------------------------|
Gb|-------------------------------|
Db|------------101010-9-7-9--7----|
Ab|-777-7-7-7------------------10-|
Eb|-------------------------------|
    *** * *
    "Ohh..."
eb|-----------------------------|
Bb|-----------------------------|
Gb|-----------------------------|
Db|------------777-5-4-5--7-5-4-|
Ab|-555-5-5-5-------------------|
Eb|-----------------------------|
    *** * *

Guitar 2 (After a couple repitions of the above)
eb|-----------------------------|
Bb|-----------------------------|
Gb|------------999-7----7-------|
Db|------------------10----10-9-|
Ab|-777-7-7-7-------------------|
Eb|-----------------------------|
    *** * *
eb|-----------------------------|
Bb|-----------------------------|
Gb|------------555-4---4--5-4---|
Db|------------------7--------7-|
Ab|-555-5-5-5-------------------|
Eb|-----------------------------|
    *** * *


Riff 12
Guitar 1
eb|---------------------------------------|
Bb|---------------------------------------|
Gb|---------------------------------------|
Db|------9------9----9------9------9----9-|
Ab|-7777-7-7777-7-77-7-7777-7-7777-7-77-7-|
Eb|---------------------------------------|
    ****   ****   **   ****   ****   ** 
eb|---------------------------------|
Bb|---------------------------------|
Gb|---------------------------------|
Db|----------12----------12------12-|
Ab|-10101010-10-10101010-10-1010-10-|
Eb|---------------------------------|
     * * * *     * * * *     * *
eb|---------------------------------|
Bb|---------------------------------|
Gb|---------------------------------|
Db|----------14----------14------14-|
Ab|-12121212-12-12121212-12-1212-12-|
Eb|---------------------------------|
     * * * *     * * * *     * *

Guitar 2 (Comes in the second time)
eb|-------------------------------|
Bb|-------------------------------|
Gb|-------------------------------|
Db|-------------------5--------7--|
Ab|-2--------5--------3--------5--|
Eb|-0--------3--------------------|


Riff 12a
eb|---------------------------------------|
Bb|---------------------------------------|
Gb|---------------------------------------|
Db|------9------9----9------9------9----9-|
Ab|-7777-7-7777-7-77-7-7777-7-7777-7-77-7-|
Eb|---------------------------------------|
    ****   ****   **   ****   ****   ** 
eb|------------------------------------------------------|
Bb|------------------------------------------------------|
Gb|------------------------------------------------------|
Db|----------12----------12------12----------14----------|
Ab|-10101010-10-10101010-10-1010-10-12121212-12-1212-12\-|
Eb|------------------------------------------------------|
     * * * *     * * * *     * *     * * * *     * *
                                           Pick through slide


Riff 13 (Solo Rhythm)
eb|---------------------------------------|
Bb|---------------------------------------|
Gb|---------------------------------------|
Db|---------------------------------------|
Ab|------2------2----2------2------2----2-|
Eb|-0000-0-0000-0-00-0-0000-0-0000-0-00-0-|
    ****   ****   **   ****   ****   **
eb|---------------------------------------|
Bb|---------------------------------------|
Gb|---------------------------------------|
Db|---------------------------------------|
Ab|------2------2----2------1------1----1-|
Eb|-3333-3-3333-3-33-3-2222-2-2222-2-22-2-|
    ****   ****   **   ****   ****   **


Solo
Guitar 1
eb|-14t12p7-15t12p7-17t12p7-15t12p7-|
Bb|---------------------------------|
Gb|---------------------------------|
Db|---------------------------------|
Ab|---------------------------------|
Eb|---------------------------------|

eb|-14t12p7-15t12p7-19t12p7-17t12p7-|
Bb|---------------------------------|
Gb|---------------------------------|
Db|---------------------------------|
Ab|---------------------------------|
Eb|---------------------------------|

eb|-14t12p7-15t12p7-17t12p7-15t12p7-|
Bb|---------------------------------|
Gb|---------------------------------|
Db|---------------------------------|
Ab|---------------------------------|
Eb|---------------------------------|

eb|-14t12p7-19t12p7-17t12p7-15t12p7-|
Bb|---------------------------------|
Gb|---------------------------------|
Db|---------------------------------|
Ab|---------------------------------|
Eb|---------------------------------|

Repeat the above bars again, then:
eb|----------------------------------------19b20r19~--17----19\-|
Bb|-17~----15----15-20~----20----------------------------20-----|
Gb|-----------16--------------16-19-21\-16----------------------|
Db|-------------------------------------------------------------|
Ab|-------------------------------------------------------------|
Eb|-------------------------------------------------------------|

eb|------------------------------------------------------15-14-|
Bb|-12~----------12-12/15~----15----12-10/12-12/13-15/17-------|
Gb|--------14-12-----------------12----------------------------|
Db|------------------------------------------------------------|
Ab|------------------------------------------------------------|
Eb|------------------------------------------------------------|


Guitar 2
eb|-17t15p10-19t15p10-20t15p10-19t15p10-|
Bb|-------------------------------------|
Gb|-------------------------------------|
Db|-------------------------------------|
Ab|-------------------------------------|
Eb|-------------------------------------|

eb|-17t15p10-19t15p10-22t15p10-20t15p10-|
Bb|-------------------------------------|
Gb|-------------------------------------|
Db|-------------------------------------|
Ab|-------------------------------------|
Eb|-------------------------------------|

eb|-17t15p10-19t15p10-20t15p10-19t15p10-|
Bb|-------------------------------------|
Gb|-------------------------------------|
Db|-------------------------------------|
Ab|-------------------------------------|
Eb|-------------------------------------|

eb|-17t15p10-22t15p10-20t15p10-19t15p10-|
Bb|-------------------------------------|
Gb|-------------------------------------|
Db|-------------------------------------|
Ab|-------------------------------------|
Eb|-------------------------------------|

Repeat the above bars again, then:
eb|----------------------------------------22b24r22~--20-19-22\-|
Bb|-20~---19-17-19-----------17-19-20--17-----------------------|
Gb|----------------16~----16------------------------------------|
Db|-------------------------------------------------------------|
Ab|-------------------------------------------------------------|
Eb|-------------------------------------------------------------|

eb|------------------------------------------------------|
Bb|----------------12~--12------------------------/17-15-|
Gb|-12~---11----11---------9-12-11/12-12/14-16/17--------|
Db|----------14------------------------------------------|
Ab|------------------------------------------------------|
Eb|------------------------------------------------------|

End solo

Riff 14
Guitar 1                           x2 
eb|---------------------------------|
Bb|---------------------------------|
Gb|---------------------------------|
Db|-------------------------------4-|
Ab|-2222-3333-2222-0000-2222-3200-2-|
Eb|---------------------------------|
    **** **** **** **** **** ****  x2 
eb|---------------------------------|-----|
Bb|---------------------------------|-----|
Gb|---------------------------------|-----|
Db|---------------------------------|-----|
Ab|-------------------------------4-|-----|
Eb|-2222-3333-2222-0000-2222-3200-2-|--0--|
    **** **** **** **** **** ****      *

NOTE: The following solo was either recorded with
the top two strings tuned a whole step higher, so
this would be an open string lick, or a capo was
used.  These are the notes being played however:

Guitar 2 (Only on Stormrider version)
eb|-19t2h7p2-20t2h8p2-19t2h7p2-17t2h5p2-|
Bb|-------------------------------------|
Gb|-------------------------------------|
Db|-------------------------------------| ---|
Ab|-------------------------------------|    |
Eb|-------------------------------------|    |
                                             |
eb|-19t2h7p2-20t2h8p2-19t2h7p2-19t2h7p2-|    |--> Play 2x
Bb|-------------------------------------|    |
Gb|-------------------------------------|    |
Db|-------------------------------------| ---|
Ab|-------------------------------------|
Eb|-------------------------------------|

eb|-------------------------------------|
Bb|-19t2h7p2-20t2h8p2-19t2h7p2-17t2h5p2-|
Gb|-------------------------------------| ---|
Db|-------------------------------------|    |
Ab|-------------------------------------|    |
Eb|-------------------------------------|    |
                                             |--> Play 2x
eb|-------------------------------------|    |
Bb|-19t2h7p2-20t2h8p2-19t2h7p2-19t2h7p2-|    |
Gb|-------------------------------------|    |
Db|-------------------------------------| ---|
Ab|-------------------------------------|
Eb|-------------------------------------|

Guitar 3 (Only on Stormrider version)
eb|-22t2h10p2-24t2h12p2-22t2h10p2-20t2h8p2-|
Bb|----------------------------------------|
Gb|----------------------------------------|
Db|----------------------------------------| ---|
Ab|----------------------------------------|    |
Eb|----------------------------------------|    |
                                                |
eb|-22t2h10p2-24t2h12p2-22t2h10p2-22t2h10p2-|   |--> Play 2x
Bb|-----------------------------------------|   |
Gb|-----------------------------------------|   |
Db|-----------------------------------------| --|
Ab|-----------------------------------------|
Eb|-----------------------------------------|

eb|----------------------------------------|
Bb|-22t2h10p2-24t2h12p2-22t2h10p2-20t2h8p2-|
Gb|----------------------------------------| ---|
Db|----------------------------------------|    |
Ab|----------------------------------------|    |
Eb|----------------------------------------|    |
                                                |--> Play 2x
eb|-----------------------------------------|   |
Bb|-22t2h10p2-24t2h12p2-22t2h10p2-22t2h10p2-|   |
Gb|-----------------------------------------|   |
Db|-----------------------------------------| --|
Ab|-----------------------------------------|
Eb|-----------------------------------------|


End solo


Riff 15
Guitar 1
eb|----------------------|
Bb|----------------------|
Gb|----------------------|
Db|----------------------|
Ab|-4--4-4--4-4--4-2-4-5-|
Eb|-2--2-2--2-2--2-0-2-3-|
    *  * *  * *  * * * * 
   "The henchman awaits you..."

Guitar 2 (Comes in after awhile, use delay)
eb|-------------------------|
Bb|-------------------------|
Gb|-------------------------|
Db|-12-10-9-10----7-9-10-9--|
Ab|-------------------------|
Eb|-------------------------|
   "It's time..."
eb|-----------------------------|
Bb|-----------------------------|
Gb|-----------------------------|
Db|----7-9-7--------------------|
Ab|-10----------10-9-7-10-9-7-9-|
Eb|-----------------------------|

Rif 16
eb|------------------------------------------------|
Bb|------------------------------------------------|
Gb|------------------------------------------------|
Db|-7-5---5----2-4-5-4-----------------------------|
Ab|-5-3---3----0-2-3-2----5-7-9-7----5-4-2-5-4-2-4-|
Eb|-----0-----------------3-5-7-5----3-2-0-3-2-0-2-|
    * * *      * * *      * * *      * * * * * * 

Play Riff 5    "Riding on the hot winds of hell..."
Play Riff 6    "...me!"
Play Riff 7
Play Riff 10   "Travel, in Stygian..."

Ending:
eb|-----------|
Bb|-----------|
Gb|-----------|
Db|-----------|
Ab|---------2-|
Eb|-000-0-0-0-|
    *** * * 


12-string acoustic ending
eb|---------------------------------|
Bb|---------------------------------|
Gb|------4h5p4---4------------------|
Db|------------7---7-5-----4--5-----|
Ab|-7-------------------7--------3--|
Eb|---------------------------------|

eb|-----------------------------------------|
Bb|-----------------------------------------|
Gb|------4h5p4---4------------------4--5--4-|
Db|------------7---7-5-----4--5--7----------|
Ab|-7-------------------7-------------------|
Eb|-----------------------------------------|

eb|----------------------------|
Bb|----------------------------|
Gb|-4h5p4---4------------------|
Db|-------7---7-5-----4--5-----|
Ab|----------------7--------3--|
Eb|----------------------------|

eb|-----------------------------------------|
Bb|-----------------------------------------|
Gb|------4h5p4---4------------------4--5--4-|
Db|------------7---7-5-----4--5--7----------|
Ab|-7-------------------7-------------------|
Eb|-----------------------------------------|

fade out


Notation:

10^        = bend a quarter step.
10b11      = bend a half step.
10b12      = bend a full step.
10b12r10   = bend and release.
[10]12     = pre-bend.
[10]12r10  = pre-bend and release.
{14}       = pick the 14th fret while holding the most 
             previous bend.
<17>       = touch the string above the 17th fret while 
             previous note(s) is(are) still ringing.

10b13*     = tremolo bar bend, from the 10th fret to the 13th fret.
7d4*       = tremolo bar dive, from the 7th fret to the 4th fret. 
12~*       = tremolo bar vibrato.

x   =  mute with fret-hand
*   =  palm mute
X\\ =  pick slide
h   =  hammer-on
p   =  pull-off
~   =  vibrato
t   =  finger tap
/   =  slide up
\   =  slide down
h.  =  natural harmonics
a   =  artificial harmonics
(9) =  ghost note
tm  =  trem picking
tr  =  trill










Добавлено: 09.10.2013
Другие материалы по этой песне:
  • Аккорды и текст

Страница создана 09.10.2013
http://primanota.ru/iced-earth/night-of-the-stormrider-chords.htm
Привет, Гость.
Предлагаем пройти революционный курс по гитаре.
Подарок от PrimaNota.Ru, забирай!