PrimaNota.ru - самый крупный в мире бесплатный архив песенных текстов, аккордов, табулатур и нот


Icecream Hands - Nipple - аккорды и текст, видео

Регистрация Запомнить меня
Войти через:  Facebook Google Twitter Vk Yandex Mail.ru

Icecream Hands - Nipple - аккорды и текст, видео

Печатать
Просмотров: 127
Уроки эстрадного вокала в Санкт-Петербурге
Авторы музыки: Charles Jenkins

Nipple
Icecream Hands
Nipple: Icecream Hands

From: Sweeter Than the Radio (1999)

Tabbed By: Jucko 

Chords

  Bm  E* A* A7* D* C#m7 B  B7  F#  A  A6  A7 D  D/C# 
|-7---7--5--5---5--4----2--2---2---0--1---0--2--2---|
|-7---9--5--5---7--5----4--4---2---2--2---2--3--3---|
|-7---9--6--6---7--4----4--2---3---2--2---0--2--2---|
|-9---9--7--5---7--6----4--4---4---2--2---2--0--x---|
|-9---7--7--7---5--4----2--2---4---0--0---0-----4---|
|-7------5--5---x--x-----------3--------------------|

  
Intro

Bm              E*     Bm*       E*
   You missed a button   I saw a nipple
            A*      A7*          D*
   And it's true, I didn't look away
            C#m7*             B     B7
   Could've starred at it all day

Bm            E*  Bm*           E*
   So lock me up    and hose me down
            A*           A7*            D*
   And it's true, a cold shower was overdue
     C#m7*             B      
   I took 'em all for you


Pre-Chorus

                   F#       B
   You can ride my bike ooh ooh
               F#       B 
   Anytime you like ooh ooh

Chorus

       A       A6                A  
   And ooh ooh ooh I want you to know
       A7                D   D/C#        
   The least I can do is show
            B          E*
   Where my heart's at
       A       A6               A
   And ooh ooh ooh so you can steal 
       A7               D   D/C#  
   In return I should reveal
            B         E*
   Where my heart's at

 Bm             E   Bm            E 
   When we went out,  you made my nose bleed
                A        A7          D   C#m7            
   Ooh and it's true, at such an altitude
                     B     
   I had to fall for you


Pre Chorus
                  F#       B
   You can fly my kite ooh ooh
                F#       B
   Any time you like ooh ooh


Chorus

       A       A6                A
   And ooh ooh ooh I want you to know
       A7                D    D/C# 
   The least I can do is show
            B         E*
   Where my heart's at
       A          A/F            A
   And ooh ooh ooh   so you can steal 
      A7              D     D/C#
   In return I should reveal
            B         E*
   Where my heart's at

Lead Break

  A           A6              A                    A7
|----------------------------------------------------------12-12fb-|
|-------------------------12--12hb-12hb-12hb-10/12-10-10/12--------|
|----6----6-9-10----10-14------------------------------------------|
|-7-----7----------------------------------------------------------|
|------------------------------------------------------------------|
|------------------------------------------------------------------|
  D              D/C#                   B                E*
|---12*12*12*12r-10--10h12-9--9----9---------------------12-10-9-9br----|
|-------------------------------10---10-10h12-10--9-7----------------12-|
|------------------------------------------------------9----------------|
|-----------------------------------------------------------------------|
|-----------------------------------------------------------------------|
|-----------------------------------------------------------------------|

Outro

 Bm             E*     Bm*       E*
   You missed a button   I saw a nipple
            A*      A7M  *       D*
   And it's true, I didn't look away
            C#m7              B
   Could've starred at it all day




hb = Half bend 
fb = Full bend 
hr = Half bend release
* = Play while string 'fb'  
r = Release bend
h = Hammer on
Добавлено: 19.07.2015
Вам также может быть интересно:
Другие материалы по этой песне:
  • Аккорды и текст

Страница создана 19.07.2015
http://primanota.ru/icecream-hands/nipple-chords.htm
Привет, Гость.
Предлагаем пройти революционный курс по гитаре.
Подарок от PrimaNota.Ru, забирай!