PrimaNota.ru - самый крупный в мире бесплатный архив песенных текстов, аккордов, табулатур и нот


Iceage - Youre Blessed - таба, видео

Регистрация Запомнить меня
Войти через:  Facebook Google Twitter Vk Yandex Mail.ru

Iceage - Youre Blessed - таба, видео

Печатать
Просмотров: 139
Уроки эстрадного вокала в Санкт-Петербурге
"You're Blessed" by Iceage
from New Brigade


standard tuning

Guitar
INTRO RIFF (let each ring out)
e|--------------------------------------------------|
B|-1h3----------------------------------------------|
G|-0----------2h4--------2h4------------------------|
D|------------0----------x--------------------------|
A|-----------------------3--------------------------|
E|--------------------------------------------------|
cont.
e|--------------------------------------------------|
B|-1h3----------------------------------------------|
G|-0----------2h4--------2h4------------------------|
D|------------0----------x--------------------------|
A|-----------------------3----------3-3-3-3-3-3-3-3-|
E|--------------------------------------------------|

VERSE RIFF
e|--------------------------------------------------||
B|-1111335------------------------------------------||
G|-0-0-0-0----2222445----2222445----4444552---------|| x 4
D|------------0-0-0-0----x-x-x-x----x-x-x-x---------||
A|-----------------------3-3-3-3----x-x-x-x---------||
E|----------------------------------0-0-0-0---------||

BRIDGE I
e|--------------------------------------------------||
B|------------------------------------------0-0-0-0-||
G|-4----------4----------4----------4------(0)0-0-0-|| x 2
D|-x----------x----------x----------x---------------||
A|-x----------x----------x----------x---------------||
E|-0----------5----------4----------0-------5-4-2-0-||

BRIDGE II
e|----------------------------------4------4--4--4--|
B|----------------------------------0------0--0--0--|
G|-4----------6-----6---------------6------6--6--6--|
D|------6--------6----6-------6---------------------|
A|-----------------------7--------------------------|
E|--------------------------------------------------|
cont.
e|--------------------------------------------||
B|--------------------------------------------||
G|------------6-----6---------------6-----6---|| x 3
D|------6--------6----6-------6--------6----6-||
A|-7---------------------7--------------------||
E|--------------------------------------------||
cont.
e|-----------------------------------------------------||
B|-----------------------------------------------------||
G|-----------------------------------------------------|| x 2
D|---6-6-6-6-6-6-6-6-6-6-6-6---9-9-9-9-9-9-9-9-9-9-9-9-||
A|-7-------------------------7-------------------------||
E|-----------------------------------------------------||

VERSE RIFF x 1

OUTRO (INTRO Variation)
e|--------------------------------------------------|
B|-1h3----------------------------------------------|
G|-0----------2h4--------2h4------------------------|
D|------------0----------x--------------------------|
A|-----------------------3--------------------------|
E|--------------------------------------------------|
cont.
e|--------------------------------------------------|
B|-1h3----------------------------------------------|
G|-0----------2h4--------2h4------------------------|
D|------------0----------x--------------------------|
A|-----------------------3----------3-----0---------|
E|----------------------------------------------3---|


That's it. Just remember that it's played fast, loose and somewhat sloppy. Feel free to 
try different things with the bridge. Please leave comments or suggestions, corrections, 
requests, etc.

Cheers
-Bennyshambles78-
Добавлено: 12.07.2013
Другие материалы по этой песне:
  • Аккорды и текст

Страница создана 12.07.2013
http://primanota.ru/iceage/youre-blessed-chords.htm
Привет, Гость.
Предлагаем пройти революционный курс по гитаре.
Подарок от PrimaNota.Ru, забирай!