PrimaNota.ru - самый крупный в мире бесплатный архив песенных текстов, аккордов, табулатур и нот


Iceage - White Rune - таба, видео

Регистрация Запомнить меня
Войти через:  Facebook Google Twitter Vk Yandex Mail.ru

Iceage - White Rune - таба, видео

Печатать
Просмотров: 165
Great Song. Pretty basic song once you dig through all the great noise. Put any 
corrections in the comments! - pye3214

Verse: Listen to song for better timing. Bass part included incase you're just 
playing along for fun and get bored.

(Play the muted strings on higher frets for 4 bars, then go down a few frets for 4 bars.)

  Marching      Marching       Across The Land          The Land
   F                                      E                                 
e|-x-x-x-x-x-x-x-x-x-x-x-x-x-x-x-x-x-x-x-x-x-x-x-x-x-x-x-x-x-x-x-x-x-x-x-x-|
B|-x-x-x-x-x-x-x-x-x-x-x-x-x-x-x-x-x-x-x-x-x-x-x-x-x-x-x-x-x-x-x-x-x-x-x-x-|
G|-x-x-x-x-x-x-x-x-x-x-x-x-x-x-x-x-x-x-x-x-x-x-x-x-x-x-x-x-x-x-x-x-x-x-x-x-|
D|-x-x-x-x-x-x-x-x-x-x-x-x-x-x-x-x-x-x-x-x-x-x-x-x-x-x-x-x-x-x-x-x-x-x-x-x-| x 4
A|-x-x-x-x-x-x-x-x-x-x-x-x-x-x-x-x-x-x-x-x-x-x-x-x-x-x-x-x-x-x-x-x-x-x-x-x-|
E|-x-x-x-x-x-x-x-x-x-x-x-x-x-x-x-x-x-x-x-x-x-x-x-x-x-x-x-x-x-x-x-x-x-x-x-x-|
(The third and fourth time play 16th notes furiously)

Bass (As played on Guitar):
e|---------------------------------------------------------------------------|
B|---------------------------------------------------------------------------|
G|---------------------------------------------------------------------------|
D|---------------------------------------------------------------------------| x 4
A|-8 (13 Times)-----8 (13 Times)------------6 (13 Times)---------6 (13 Times)|
E|---------------------------------------------------------------------------|

Chorus:
Guitar 1
   White Runes Lies in Deathbeds  And Deathbed Writes in White Runes

e|---------|
B|---------|
G|---------|
D|---------| (Repeat As Needed)
A|-3-------|
E|-1-------|

    I Am   White Rune    White Rune White Rune White Rune
e|--------|
B|--------|
G|--------|
D|-8------| (Repeat as Needed)
A|-6------| 
E|--------|

Guitar 2:
e|-----------------|
B|-----------------|
G|-----------------|
D|-----------------| (Repeat as Needed)
A|-----3-3-----3-3-|
E|-1-1-----1-1-----|      

e|------------------|
B|------------------|
G|------------------|
D|-----8-8-----8-8--| (Repeat As Needed)
A|-6-6-----6-6------|
E|------------------|

Bridge: Timing isn't exact.

e|----------------------------------------------------------|
B|----------------------------------------------------------|
G|----------------------------------------------------------|
D|-10-10--10-10-10-11-11--11-11-11-7-7--7-7-7--7-7-7-8------| x4 
A|-8--8---8--8--8--9--9---9--9--9--5-5--5-5-5--5-5-5-6------|
E|----------------------------------------------------------|


Verse
Chorus
1/2 Verse
Chorus
Bridge
Chorus
Добавлено: 19.08.2013
Другие материалы по этой песне:
  • Аккорды и текст

Страница создана 19.08.2013
http://primanota.ru/iceage/white-rune-chords.htm
Привет, Гость.
Предлагаем пройти революционный курс по гитаре.
Подарок от PrimaNota.Ru, забирай!