PrimaNota.ru - самый крупный в мире бесплатный архив песенных текстов, аккордов, табулатур и нот


Iceage - Plowing Into The Field Of Love - аккорды и текст, бас-таба, видео

Регистрация Запомнить меня
Войти через:  Facebook Google Twitter Vk Yandex Mail.ru

Iceage - Plowing Into The Field Of Love - аккорды и текст, бас-таба, видео

Печатать
Просмотров: 183
Авторы музыки: Iceage

Plowing Into The Field Of Love
Iceage
  G6      Cadd9    Cma7  Em         Cma7  Em         Cma7  Em

e|0---0-----------|----------------|----------------|----------------|
B|3-----3-0---3-0-|0---------------|0---------------|0---------------|
G|0-------0-------|0-0---0---------|0-0---0---------|0-0---0---------|
D|0-------2-------|2-2-0-2----020--|2-2-0-2----020--|2-2-0-2---------|
A|2-------3-------|3-----2---2---20|3-----2---2---20|3-----2---------|
E|3---------------|------0---------|------0---------|------0---------|

G6  Cadd9 Cma7        Em
all those brash young studs
          Cma7  Em           Cma7    Em
they have no   idea what its like up here
  G6             Cadd9       Cma7
I am that ragged figure of a man
    Em        Cma7    Em
standing in a mansion window
        Cma7        Em           Asus2  Cma7 Em
looking down at the strung out refugees
     Asus2                            Cma7
some men would question why you would feed an
   Em           G6
animal with champagne

                 Dsus2              Em
paddling through  still dark waters
        Cma7                            G6
and the moon illuminates a thin white line
            Dsus2        Em 
bootlickers  stand aside
     Cma7                      Asus2
I am plowing into the field of love

G6 Cadd9 Cma7 Em Cma7 Em Cma7 Em

G6 Cadd9 Cma7  Em
in the   dying light
         Cma7    Em                Cma7  Em
I made a binding contract with the lucid blue
 G6   Cadd9 Cma7   Em
our affairs are at chance
       Cma7   Em
always to its favor
       Cma7   Em
always as its vessel
  Asus2  Cma7 Em
as you please
       Asus2
as you please
Cma7   Em G6
please

                Dsus2              Em
paddling through still dark waters
        Cma7                          G6
and the moon illuminates a thin white line
           Dsus2        Em
bootlickers stand aside
     Cma7                           G6
I am plowing into the field of love
                Dsus2              Em
paddling through still dark waters
        Cma7                          G6
and the moon illuminates a thin white line
           Dsus2        Em
bootlickers stand aside
     Cma7
I am plowing into the field of love

Asus2 Cma7 Em

e|----------------|
B|----------------|
G|2-2-2-2-2-2-2-2-|
D|2-2-2-2-2-2-2-2-|
A|0-0-0-0-0-0-0-0-|
E|----------------|

and they will place me in a

e|------------------------|
B|------------------------|
G|------------------------|
D|0-0-0-----0-2---0-2-2-2-|
A|2-2-2-----2-2---2-2-3-2-|
E|3-3-3-2---3-0---3-0-0-0-|

hearse hearse hearse hearse hearse hearse hearse hearse hearse 

e|------------------------|
B|------------------------|
G|333333000000333333000000|
D|222222222222222222222222|
A|111111222222111111222222|
E|000000000000000000000000|

e|------------------------|
B|------------------------|
G|------------------------|
D|0-0-0-----0-2---0-2-2-2-|
A|2-2-2-----2-2---2-2-3-2-|
E|3-3-3-2---3-0---3-0-0-0-|

hearse hearse hearse hearse hearse hearse hearse hearse hearse hearse
Добавлено: 04.06.2015
Другие материалы по этой песне:
  • Аккорды и текст

Страница создана 04.06.2015
http://primanota.ru/iceage/plowing-into-field-of-love-chords.htm
Привет, Гость.
Предлагаем пройти революционный курс по гитаре.
Подарок от PrimaNota.Ru, забирай!