PrimaNota.ru - самый крупный в мире бесплатный архив песенных текстов, аккордов, табулатур и нот


Iceage - Morals - таба, видео

Регистрация Запомнить меня
Войти через:  Facebook Google Twitter Vk Yandex Mail.ru

Iceage - Morals - таба, видео

Печатать
Просмотров: 107
Intro:

e-------------------------
B-------------------------
G------------------------- etc
D(2)----------------------
A-2-----2-2---2---2-2-2-2-
E-0-----0-0---0---0-0-0-0-

Listen to get the exact rhythm...goes on for 4 measures

Verse:

  EM7                                 E6
e-0~--------------|-----------------|-0~--------------|-----------------|
B-0~--------------|-----------------|-0~--------------|-----------------|
G-8-----8-8---8---|-8---8---8-8-8-8-|-6-----6-6---6---|-6---6---6-6-6-6-|
D-6-----6-6---6---|-6---6---6-6-6-6-|-6-----6-6---6---|-6---6---6-6-6-6-|
A-7-----7-7---7---|-7---7---7-7-7-7-|-7-----7-7---7---|-7---7---7-7-7-7-|
E-0-----0-0---0---|-0---0---0-0-0-0-|-0-----0-0---0---|-0---0---0-0-0-0-|

  B                                   G#m               F#
e-7~--------------|-----------------|-4~--------------|-2~--------------|
B-7~--------------|-----------------|-4~--------------|-2~--------------|
G-8-----8-8---8---|-8---8---8-8-8-8-|-4-----4-4---4---|-3---3---3-3-3-3-|
D-9-----9-9---9---|-9---9---9-9-9-9-|-6-----6-6---6---|-4---4---4-4-4-4-|
A-9-----9-9---9---|-9---9---9-9-9-9-|-6-----6-6---6---|-4---4---4-4-4-4-|
E-7-----7-7---7---|-7---7---7-7-7-7-|-4-----4-4---4---|-2---2---2-2-2-2-|

  EM7                                 E6
e-0~--------------|-----------------|-0~--------------|-----------------|
B-0~--------------|-----------------|-0~--------------|-----------------|
G-8-----8-8---8---|-8---8---8-8-8-8-|-6-----6-6---6---|-6---6---6-6-6-6-|
D-6-----6-6---6---|-6---6---6-6-6-6-|-6-----6-6---6---|-6---6---6-6-6-6-|
A-7-----7-7---7---|-7---7---7-7-7-7-|-7-----7-7---7---|-7---7---7-7-7-7-|
E-0-----0-0---0---|-0---0---0-0-0-0-|-0-----0-0---0---|-0---0---0-0-0-0-|

  B                 A#                C#dim7
e-7~--------------|-6~--------------|-----------------|-----------------|
B-7~--------------|-6~--------------|-8-----8-8---8---|-8---8---8-8-8-8-|
G-8-----8-8---8---|-7---7---7-7-7-7-|-6-----6-6---6---|-6---6---6-6-6-6-|
D-9-----9-9---9---|-8---8---8-8-8-8-|-x-----x-x---x---|-x---x---x-x-x-x-|
A-9-----9-9---9---|-8---8---8-8-8-8-|-8-----8-8---8---|-8---8---8-8-8-8-|
E-7-----7-7---7---|-6---6---6-6-6-6-|-----------------|-----------------|

Chorus:

I'm not entirely sure about this part, but I think it kinda goes like....
E,F#,G#m,B
Добавлено: 14.09.2015
Другие материалы по этой песне:
  • Аккорды и текст

Страница создана 14.09.2015
http://primanota.ru/iceage/morals-chords.htm
Привет, Гость.
Предлагаем пройти революционный курс по гитаре.
Подарок от PrimaNota.Ru, забирай!