PrimaNota.ru - самый крупный в мире бесплатный архив песенных текстов, аккордов, табулатур и нот


Iceage - Let It Vanish - бас-таба, видео

Регистрация Запомнить меня
Войти через:  Facebook Google Twitter Vk Yandex Mail.ru

Iceage - Let It Vanish - бас-таба, видео

Печатать
Просмотров: 96
Авторы музыки: Iceage

Band:Iceage
Song:Let it Vansih
Album:Plowing into the field of love

tabs by: mrciocio
For the timing, rythm et cetera - listen to the song
I'm not very happy with the chorus through, but that's all i coul easly figure out
Verse
G|--------------------------------------------------------------|
D|--------------------------------------------------------------|
A|-----------------------------------------2222-3333-2----------| x4
E|---3h5-5--55-5555---3h5-5--55-5555--0000-------------0000-----|

Pre-Bridge
G|--------------------------------------------------------------|
D|--------------------------------------------------------------|
A|---------------------------------2222-3333-2------------------| x2
E|--------3333-4444-3333-4444-0000-------------000--------------|


Pre-Chorus
G|-------------------------------------------------------------------|
D|-------------------------------------------------------------------|
A|-------------------------------------------------------------------|
E|---3333-4444-3333-444h5---5-7---7-0---0-9---9-5---5-7--7-8--8-0-00-|


G|------------------------------------------------------------------|
D|------------------------------------------------------------------|
A|------------------------------------------------------------------|
E|---0-5---5-7---7-0---0-9---9-5---5-7--7-8--8-0-00-----------------|


Chorus
G|-----------------------------------------------------------------|
D|------------444444-----------------------------------------------|
A|---666666-4------------------------------------------------------|
E|-------------------5555555-3-0000000-----------------------------|


G|-----------------------------------------------------------------|
D|-----------------------------------------------------------------|
A|---666666-4------------------------------------------------------|
E|------------666666-555555-4-0000000------------------------------|


Verse
G|--------------------------------------------------------------|
D|--------------------------------------------------------------|
A|-----------------------------------------2222-3333-2----------| x4
E|---3h5-5--55-5555---3h5-5--55-5555--0000-------------0000-----|

Pre-Bridge
G|--------------------------------------------------------------|
D|--------------------------------------------------------------|
A|---------------------------------2222-3333-2------------------| x2
E|--------3333-4444-3333-4444-0000-------------000--------------|

Pre-Chorus
G|-------------------------------------------------------------------|
D|-------------------------------------------------------------------|
A|-------------------------------------------------------------------|
E|---3333-4444-3333-444h5---5-7---7-0---0-9---9-5---5-7--7-8--8-0-00-|


G|------------------------------------------------------------------|
D|------------------------------------------------------------------|
A|------------------------------------------------------------------|
E|---0-5---5-7---7-0---0-9---9-5---5-7--7-8--8-0-00-----------------|

Chorus
G|--------------------------------------------|
D|------------444444--------------------------|
A|---666666-4---------------------------------|
E|-------------------5555555-3-0000000--------|


G|--------------------------------------------|         x2
D|--------------------------------------------|
A|---666666-4---------------------------------|
E|------------666666-555555-4-0000000---------|

There's a short outro like an 4h6p4 or something like that

by: mrciocio
Добавлено: 14.09.2015
Другие материалы по этой песне:
  • Аккорды и текст

Страница создана 14.09.2015
http://primanota.ru/iceage/let-it-vanish-chords.htm
Привет, Гость.
Предлагаем пройти революционный курс по гитаре.
Подарок от PrimaNota.Ru, забирай!