PrimaNota.ru - самый крупный в мире бесплатный архив песенных текстов, аккордов, табулатур и нот


Iceage - How Many - таба, видео

Регистрация Запомнить меня
Войти через:  Facebook Google Twitter Vk Yandex Mail.ru

Iceage - How Many - таба, видео

Печатать
Просмотров: 134
Авторы музыки: Iceage

 
ICEAGE - HOW MANY (INTRO)

-----------------

(note: this is a very rough draft of the intro, and is far from spot on.)

Just 2 note tremelo each pair of notes, but these are the cues to change. (In 3/4)

E|-------------------------------------------------------- \
B|----0-1------------0--------------0--------------0------  \
G|----0-0------------0--------------2--------------4------   \
D|--------------------------------------------------------    \
A|--------------------------------------------------------     \
E|--------------------------------------------------------      \
      1         2         3         1         2         3        \
                                                                  \   REPEAT 
                                                                  /   TWICE
                                                                 / 
E|--------------------------------------------------------      /
B|--------------------------------------------------------     /
G|----0--------------0--------------0---------0-----------    /
D|----5--------------7--------------4---------5-----------   /
A|--------------------------------------------------------  /
E|-------------------------------------------------------- /
      1         2         3         1         2         3



E|----0--------------0--------------0--------------0------|
B|----5--------------3--------------1--------------0------|
G|--------------------------------------------------------|
D|--------------------------------------------------------|
A|--------------------------------------------------------|
E|--------------------------------------------------------|
      1         2         3         1         2         3



E|--------------------------------------------------------|
B|----0-------------0---------------0---------0-----------|
G|----4-------------5---------------2---------4-----------|
D|--------------------------------------------------------|
A|--------------------------------------------------------|
E|--------------------------------------------------------|
      1         2         3         1         2         3



E|-------------------------------------------1p-0--------3p-0-------|
B|----0--0--0--0--0--2p-0--0--0--4p-0--0--0--------0--0--------0--0-|
G|------------------------------------------------------------------|   REPEAT TWICE
D|------------------------------------------------------------------|
A|------------------------------------------------------------------|
E|------------------------------------------------------------------|
      1        2           3     1           2           3

^^ Sorry about the weird spacing of beats ^^
Добавлено: 14.09.2015
Вам также может быть интересно:
Другие материалы по этой песне:
  • Аккорды и текст

Страница создана 14.09.2015
http://primanota.ru/iceage/how-many-chords.htm
Привет, Гость.
Предлагаем пройти революционный курс по гитаре.
Подарок от PrimaNota.Ru, забирай!