PrimaNota.ru - самый крупный в мире бесплатный архив песенных текстов, аккордов, табулатур и нот


Iceage - Coalition - таба, видео

Регистрация Запомнить меня
Войти через:  Facebook Google Twitter Vk Yandex Mail.ru

Iceage - Coalition - таба, видео

Печатать
Просмотров: 106
Great song off new album, enjoy.

Verse:
C                             F                 A            C          F       A
        She gives me signals,   she gives me signals But our hearts are not the same
e|-------------------------------------------------------------------------------------|
B|-------------------------------------------------------------------------------------|
G|-------------------------------------------------------------------------------------| x 2
D|-5---------------------------------------------------------5-------------------------|
A|-3--------------------------3----------------7-------------3-----------3-------7-----|
E|----------------------------1----------------5-------------------------1-------5-----|


Prechorus: (Using tremolo bar or just bend the chords really well)

e|-------------------------------------|
B|-------------------------------------|
G|-------------------------------------| x 2
D|-5-----------------------------------|
A|-3------------------3------------7---|
E|--------------------1------------5---|

Chorus: (Tremolo Picked and listen for timing)
     
e|--------------------------------------------------|
B|--------------------------------------------------|
G|-14----------------------7-----------------12-----|
D|--------------------------------------------------|
A|--------------------------------------------------|
E|--------------------------------------------------|
        
e|--------------------------------------------------|
B|--------------------------------------------------|
G|-11-------------12--------11----------12-11--7----|
D|--------------------------------------------------| X2
A|--------------------------------------------------|
E|--------------------------------------------------|
                                                             Excess   
e|--------------------------------------------------|
B|--------------------------------------------------|
G|--------------------------------------------------|
D|--------------------------------------------------| X2
A|---10--12-10--7--8-7--8----10-8-3-----------------|
E|--------------------------------------------------|

Outro: 
e|----------------------------------|
B|----------------------------------|
G|----------------------------------| 
D|-5--------------------------------|
A|-3-----7----3----7---3------------|
E|-------5----1----5---1------------|

Play whole song twice then outro. Comment any corrections
Добавлено: 30.09.2013
Другие материалы по этой песне:
  • Аккорды и текст

Страница создана 30.09.2013
http://primanota.ru/iceage/coalition-chords.htm
Привет, Гость.
Предлагаем пройти революционный курс по гитаре.
Подарок от PrimaNota.Ru, забирай!