PrimaNota.ru - самый крупный в мире бесплатный архив песенных текстов, аккордов, табулатур и нот


Iceage - Broken Bone - таба, видео

Регистрация Запомнить меня
Войти через:  Facebook Google Twitter Vk Yandex Mail.ru

Iceage - Broken Bone - таба, видео

Печатать
Просмотров: 127
Уроки эстрадного вокала в Санкт-Петербурге
http://iceagecopenhagen.blogspot.com/

"Broken Bone" by Iceage
from New Brigade


standard tuning

Guitar
Intro riff
e|-----------------------------------------------------------------|
B|-3-3-----3-3-4-4-3-3-----3-3-4-4-3-3-----3-3-4-4-3-3-----3-3-4-4-|
G|-5-5-----5-5-5-5-5-5-----5-5-5-5-5-5-----5-5-5-5-5-5-----5-5-5-5-|
D|-5-5-----5-5-5-5-5-5-----5-5-5-5-5-5-----5-5-5-5-5-5-----5-5-5-5-|
A|-X-X-----X-X-X-X-X-X-----X-X-X-X-X-X-----X-X-X-X-X-X-----X-X-X-X-|
E|-3-3-----3-3-4-4-3-3-----3-3-4-4-3-3-----3-3-4-4-3-3-----3-3-4-4-|

Verse riff
e|-3--3-3--3-3----------------------------------------------------||
B|-3--3-3--3-3--8--8-8--8-8--8-8-10108-8-10108-8-10108-8-1010-----||
G|-5--5-5--5-5--7--7-7--7-7--9-9-9-9-9-9-9-9-9-9-9-9-9-9-9-9------||
D|-5--5-5--5-5--X--X-X--X-X--X-X-X-X-X-X-X-X-X-X-X-X-X-X-X-X------|| x 4
A|-X--X-X--X-X--5--5-5--5-5--7-7-7-7-X-X-X-X-7-7-7-7-X-X-X-X------||
E|-3--3-3--3-3-----------------------7-7-7-7---------7-7-7-7------||

(on the 4th time repeat the last chord figure)
e|---------------------------------|
B|-8-8-10108-8-10108-8-10108-8-1010|
G|-9-9-9-9-9-9-9-9-9-9-9-9-9-9-9-9-|
D|-X-X-X-X-X-X-X-X-X-X-X-X-X-X-X-X-|
A|-7-7-7-7-X-X-X-X-7-7-7-7-X-X-X-X-|
E|---------7-7-7-7---------7-7-7-7-|

Chorus riff/chords (listen to song for strumming pattern)
e|-6-----6-----4-----4-----11-----11----9-----9--||
B|-6-----6-----4-----4-----11-----11----9-----9--||
G|-7-----7-----5-----5-----12-----12----10----10-||
D|-8-----8-----6-----6-----13-----13----11----11-|| x 2
A|-X-----X-----X-----X-----X------X-----X-----X--||
E|-6-----5-----4-----3-----11-----10----9-----8--||

First bridge riff (listen for strumming pattern)
e|-------------------------------------||
B|-------------------------------------||
G|-9-----7-----------------------------||
D|-X-----X-----9-----7-----5------2----|| x 4
A|-7-----5-----X-----X-----X------X----||
E|-------------7-----5-----3------0----||

(on the 4th time repeat last half of riff into chorus)
e|-------------------------|
B|-------------------------|
G|-------------------------|
D|-9-----7-----5------2----|
A|-X-----X-----X------X----|
E|-7-----5-----3------0----|

Chorus

Second bridge riff
e|--------------------------11--------------------11-10-9--|
B|----9-9-9-9----9-9-9-9----10---9-9-9-9----9-9-10-9--8----|
G|----12121212---12121212--------12121212---1212-----------|
D|---------------------------------------------------------|
A|---------------------------------------------------------|
E|-0--X-------0--X------------0--X-------0--X--------------|

Second bridge riff (cont.)
e|-------------------------(0)-------------(0)----0-----0--||
B|----9-9-9-9----9-9-9-9----X----9-9-9-9----X-----X-----X--||
G|----12121212---12121212---8----12121212---8-----8-----8--|| x 2
D|--------------------------7---------------7-----7-----7--||
A|-----------------------------------------(0)---(6)----0--||
E|-0--X-------0--X------------0--X-------------------------||

Chorus

End on an E drone

That's it. Please leave comments or suggestions, corrections, requests, etc.

Cheers
-Bennyshambles78-
Добавлено: 29.10.2013
Другие материалы по этой песне:
  • Аккорды и текст

Страница создана 29.10.2013
http://primanota.ru/iceage/broken-bone-chords.htm
Привет, Гость.
Предлагаем пройти революционный курс по гитаре.
Подарок от PrimaNota.Ru, забирай!