PrimaNota.ru - самый крупный в мире бесплатный архив песенных текстов, аккордов, табулатур и нот


Iceage - Abundant Living - бас-таба, видео

Регистрация Запомнить меня
Войти через:  Facebook Google Twitter Vk Yandex Mail.ru

Iceage - Abundant Living - бас-таба, видео

Печатать
Просмотров: 106
Авторы музыки: Iceage

Band:Iceage
Song:Abundant Living
Album:Plowing into the field of love
by mrciocio

For the timing, rythm et cetera - listen to the song
I'm positive it's 95% correct

Intro
G|--------------------------------------------------------------|
D|--------------------------------------------------------------|
A|------5--7--9------12*--------12\2\1/2------------------------|  
E|---------------10---------------------------------------------|
(while sliding continue strumming gently)

Verse
G|-------------------------------------------------------------|
D|-------------------------------------------------------------|
A|---------------------------5---------------------------------| x5
E|-----0----------------0-7----7--5-7--3-5---------------------|

Pre-Chorus               Chorus
G|--------------------|-----------------------------------------|
D|--------------------|---------4-------------------------------|
A|--------------5-----|---5--7-----5--------------5-----2*------|
E|---------0-7----7---|---------------5*-----5--7-----3---------|


G|------------------------------|
D|------------------------------|
A|----------2-------------------| x2
E|----3--5-----3--0*------------|


Chorus again
G|----------------------------------------------------------|
D|------------------------4---------------------------------|
A|------------------5--7-----5---------------5-----2*-------|
E|------------------------------5*-----5--7-----3-----------|


G|------------------------------|
D|------------------------------|
A|----------2-------------------| x2
E|----3--5-----3--0*------------|

Pre-verse
G|------------------------------|
D|------------------------------|
A|------------------------------| x2
E|----0000--0000-000000000------|

Verse
G|-------------------------------------------------------------|
D|-------------------------------------------------------------|
A|---------------------------5---------------------------------| x5
E|-----0----------------0-7----7--5-7--3-5---------------------|

Pre-Chorus               Chorus
G|--------------------|-----------------------------------------|
D|--------------------|---------4-------------------------------|
A|--------------5-----|---5--7-----5--------------5-----2*------|
E|---------0-7----7---|---------------5*-----5--7-----3---------|


G|--------------------------------|
D|--------------------------------|
A|----------2---------------------| x2
E|----3--5-----3--0*--------------|


Chorus again/Outro
G|----------------------------------------------------------|
D|------------------------4---------------------------------|
A|------------------5--7-----5---------------5-----2*-------|
E|------------------------------5*-----5--7-----3-----------|


G|------------------------------|
D|------------------------------|
A|----------2-------------------| x4
E|----3--5-----3--0-------------|
Добавлено: 14.09.2015
Другие материалы по этой песне:
  • Аккорды и текст

Страница создана 14.09.2015
http://primanota.ru/iceage/abundant-living-chords.htm
Привет, Гость.
Предлагаем пройти революционный курс по гитаре.
Подарок от PrimaNota.Ru, забирай!