PrimaNota.ru - самый крупный в мире бесплатный архив песенных текстов, аккордов, табулатур и нот


Ice Nine Kills - Connect The Cuts - таба, видео

Регистрация Запомнить меня
Войти через:  Facebook Google Twitter Vk Yandex Mail.ru

Ice Nine Kills - Connect The Cuts - таба, видео

Печатать
Просмотров: 172
Уроки эстрадного вокала в Санкт-Петербурге
-------------------------------------------------------------------------------
                             Connect The Cuts - Ice Nine Kills
-------------------------------------------------------------------------------
Tabbed by: BatzGuitar337
E-mail: brendenglensmith@yahoo.com

I noticed that there wasn't a tab for this song. I was disappointed. I LOVE this song. It is amazing and I'm 
surprised it isn't on here. Some parts may be a little off because I tabbed it by ear. Anyways, I hope you
enjoy it. It's a really fun song to play and one of my personal favorites from Ice Nine.

Tuning: Drop A

Drum Fill.

 "Well I've been..."
Verse
b |--------------------------------------------------------------------------------------------|
F#|--------------------------------------------------------------------------------------------|
D |--------------------------------------------------------------------------------------------|
A |--------------------------------------------------------------------------------------------|
E |12---------13---------12-------------------12---------13---------12---------5---5h8---4-----|
A |---0-0-0-0----0-0-0-0----0-0-0-0-10x4-13x4----0-0-0-0----0-0-0-0----0-0-0-0---0-----0-------|
                                                                                 .     .
 "The more that I've been given...."
b |--------------------------------------------------------------------------------------------|
F#|--------------------------------------------------------------------------------------------|
D |--------------------------------------------------------------------------------------------|
A |--------------------------------------------------------------------------------------------|
E |12---------13---------12-------------------12---------13---------12-------------------------|
A |---0-0-0-0----0-0-0-0----0-0-0-0-10x4-13x4----0-0-0-0----0-0-0-0----0-0-0-0-10p8-10p0-13x4--|

 "With little faith in a God or humanity I'm lost"
Pre-chorus
b |-------|
F#|-------|
D |-------|
A |0~~-0~~|
E |0~~-0~~|
A |0~~-0~~|

"BURN, MOTHERFUCKER, BURN!"

b |--------------------------------------------------------|
F#|--------------------------------------------------------|
D |--------------------------------------------------------|
A |--------------------------------------------------------|
E |0---0-0-0-0-0---0---0---0-0--0---0----0-------0-0-0-----|
A |0x3-0-0-0-0-0x3-0x3-0x3-0-0--0x3-0x3--0x3-12\-0-0-0x4---|
   .   . . . . .   .   .   . .  .   .    .      . . .   
 
 "There's no truth..."
b |--------------------------------------------|
F#|--------------------------------------------|
D |--------------------------------------------|
A |--------------------------------------------|
E |0---0-0-0--8---8----8---8----3---3-3-3--7---|
A |0x3-0-0-0--8x3-8x3--8x3-8x3--3x3-3-3-3--7x9-|
   .   . . .  .   .    .   .    .   . . .  .

 "On and on..."
Chorus
b |-------------------------------------------|
F#|-------------------------------------------|
D |-------------------------------------------|
A |0----8----3----7----0----8----3----5---2---|
E |0x16-8x16-3x16-7x16-0x16-8x16-3x12-5x4-2x16|
A |0----8----3----7----0----8----3----5---2---|

 "I'll fucking self-destruct!" 
Breakdown 1
b |--------------------------------------------------------|
F#|--------------------------------------------------------|
D |--------------------------------------------------------|
A |--------------------------------------------------------|
E |----0---0---0---0---0-0---0---0----0--0-0-0-0-----------|
A |1x6-1x3-1x4-1x2-1x4-1-1x3-1x3-1x4-1x3-1-1-1-1--13-13-13-|
       .   .   .   .   . .   .   .   .   . . . .

Verse (play full or half of it. If you choose half play this)

 "I feel the Devil..."
b |---------------------------------------------------------------------------|
F#|---------------------------------------------------------------------------|
D |---------------------------------------------------------------------------|
A |---------------------------------------------------------------------------|
E |0-0-0-0----0-0-0--0-0-0---0---0---0-0-0--0-0-0-----------------------------|
A |0-0-0-0x4--0-0-0--0-0-0x3-0x3-0x4-0-0-0--0-0-0--0-10p8-10p0-13x4-----------|
   . . . .    . . .  . . .   .   .   . . .  . . .  .

Chorus
Breakdown 1

 "Doubt has dragged me down..."
Bridge
b |-------------------------------------------------------------|----------------|
F#|-------------------------------------------------------------|-----2nd ending-|
D |-------------------------------------------------------------|----------------|
A |-------------------------------------------------------------|----------------|
E |0---0-0-0--8---8----8---8----5---5-5-5--5----7----7----------|0---------------|
A |0x3-0-0-0--8x3-8x3--8x3-8x3--5x3-5-5-5--5x3--7x2--7x4--------|0---------------|
   .   . . .  .   .    .   .    .   . . .  .    .    .           .

"I can't believe..."
b |----------------------------------------------------------------------------------|
F#|------11-11-----------11--------11--------11--------11--------11--------11--------|
D |14-14-------14-14--14----14--14----14--14----14--14----14--14----14--14----14-14--|
A |----------------------------------------------------------------------------------|
E |----------------------------------------------------------------------------------|
A |----------------------------------------------------------------------------------|

 "I should Burn! Burn!"
Breakdown 2
b |---------------------------------------------------------------------------|
F#|---------------------------------------------------------------------------|
D |---------------------------------------------------------------------------|
A |---------------------------------------------------------------------------|
E |---------------------------------------------------------------------------|
A |1x6-1p0-0x2-0x3-0x3-0-0-0x3-0x3-0x4-0x3-0x3-0-1b-0-0-0-1b-0-0-0------------|

"I feel the Devil..."
Outro
b |----------0-----0------------------------------0------0------------------------|
F#|----------0-----0------------------------------0------0------------------------|
D |----------0-----0------------------------------0------0------------------------|
A |---------------------------------------------------------0-----0---------------|
E |0-0-0-0-----0-0---0-0--0-0-0--0-0-0---0-----0-0---0-0--0-0-0-0-0-------3+------|
A |0-0-0-0x4---0-0---0-0--0-0-0--0-0-0---0x4---0-0---0-0--0-0-0-0-0-0-------------|
   . . . .     . .   . .  . . .  . . .   .     . .   . .  .   . .   .

************************************

| /   slide up
| \   slide down
| h   hammer-on
| p   pull-off
| ~   vibrato
| +   harmonic
| x   Mute note
| b   Bend
| pb  Pre-bend
| br  Bend release
| pbr Pre-bend release
| brb Bend release bend

************************************
Добавлено: 04.11.2015
Другие материалы по этой песне:
  • Аккорды и текст

Страница создана 04.11.2015
http://primanota.ru/ice-nine-kills/connect-cuts-chords.htm
Привет, Гость.
Предлагаем пройти революционный курс по гитаре.
Подарок от PrimaNota.Ru, забирай!