PrimaNota.ru - самый крупный в мире бесплатный архив песенных текстов, аккордов, табулатур и нот


Ian Moore - Today - таба, видео

Регистрация Запомнить меня
Войти через:  Facebook Google Twitter Vk Yandex Mail.ru

Ian Moore - Today - таба, видео

Печатать
Просмотров: 116
ian moore- today     tabbed by: hunter
album version     standard tunning  ian plays this different every time
                                    but this is the album version
intro/verse
:-------------------------------------------------------------------------|
:---4---4------4----------3h4-3------------4------4--------3h4-3----------|
:---------3------3---------------5--3--------3------3-------------5--3----|
:-------------------------------------------------------------------------|
:-------------------------------------------------------------------------|
:---4-------4--------4-------------------------4--------4-----------------|

:------------------------------3-------------<12>--|
:---4-------4--------------------4-------<12>------|
:-----3-------3-----3/5\3p0------------------------|
:--------------------------------------------------|
:--------------------------------------------------|
:-------4-------4------------------4---------------|

    lay                   me  in   flowers                 sweet magnolias
:-------------------------------------------------------------------------|
:---4---4------4----------3h4-3------------4------4--------3h4-3----------|
:---------3------3---------------5--3--------3------3-------------5--3----|
:-------------------------------------------------------------------------|
:-------------------------------------------------------------------------|
:---4-------4--------4-------------------------4--------4-----------------|

           new orealans style
:-----------------------------------------|
:---4-------4----------------4------4-----|
:-----3-------3-----3/5\3p0----3------3---|the verse goes like this
:-----------------------------------------|
:-----------------------------------------|
:-------4--------4---------------4------4-|

the other part are just chords so im just gonna give you the chords with the lyrics so 
listen to the cd for timing

lay me in flowers

sweet magnolias

new orealans style

play me a funeral prossesion

second line rythems

walk me that mile

ooh........oh

find a tomb for my hiding

ohh let me just rest there for awhile

make a grand presentation

oh for all my family remeber my time

the river is runnin

with mississippi mud
                      Dsus2(chords start play this Dsus2 using hammer ons
my life is good today       listen to the song for timing)
Dsus2
fly oh fly
Dsus2
cause i got somewhere that i got to be
Dsus2
docters and lawyers oh with all their money
Dsus2
they wont find me
 Am           C
the skies so big here
 Am           C
heavens on a dusk(or dust) day
 Am         C       G G
my life is good today
Dsus2
and i am so alive
Dsus2
goes so quickly yeah so many roads
Dsus2
want to ask for forgivness
Dsus2
my friends all with me i wasnt home
Am              C
my heart is so full here
    Am         c
my soul reconsile
 Am                G     G     G
my life is good today...yeah...oh

so lay me in flowers sweet magnolias (play the intro/verse right here)

new orealens style.  End

there you go....please rate
Добавлено: 11.04.2012
Другие материалы по этой песне:
  • Аккорды и текст

Страница создана 11.04.2012
http://primanota.ru/ian-moore/today-chords.htm
Привет, Гость.
Предлагаем пройти революционный курс по гитаре.
Подарок от PrimaNota.Ru, забирай!