PrimaNota.ru - самый крупный в мире бесплатный архив песенных текстов, аккордов, табулатур и нот


Ian Moore - Jesus Wash Away My Troubles - таба, видео

Регистрация Запомнить меня
Войти через:  Facebook Google Twitter Vk Yandex Mail.ru

Ian Moore - Jesus Wash Away My Troubles - таба, видео

Печатать
Просмотров: 101
ian moore- jesus wash away my troubles
album: action company  standard tunning

                               jesus wash          away
:--------------------------------------------------------------|
:---------2--------------2-----------------2-------------2-----|
:-------2---2----------2---2-------------2---2---------2---2---|
:-----2-------2------2-------2---------2-------2-----2-------2-|
:---0--------------0-----------------0-------------0-----------|
:--------------------------------------------------------------|


    my  troubles              while im           travelin
:----------------------------------------2-------------2--------|
:---------2-------------2---------------3--3---------3---3------|
:-------2---2---------2---2-----------2------2-----2-------2----|
:-----2-------2-----2-------2-------0------------0--------------|
:---0-------------0---------------------------------------------|
:---------------------------------------------------------------|


   here below                                 for  i
:-------------------------------------------------------------------------|
:--------------2/3-----3------------2---------------2-------------2-------|
:-----------2--2---2--------------2---2-----------2---2---------2---2-----|
:---------2----------2----------2-------2-------2-------2-----2-------2---|
:-------0---------------------0---------------0-------------0-------------|
:-------------------------------------------------------------------------|


    i have enemys         you     know
:---------2---------------------------------------------2-------:
:-------3---3-------------0-------------2-------------3---3-----:
:-----2-------2-------------1---------2---2---------2-------2---:
:---0-------------------2-----2-----2-------2-----0-------------:
:---------------------2-----------0-----------------------------:
:-------------------0-------------------------------------------:


well there you go that the beat to the whole song...tabbed by: hunter

lyrics and chords
      A
jesus wash away my troubles
     D                   A
while im travelin here below
         D             E   A     D
for i....i have enemys you know
 A       D             A
jesus a' take me onto glory
      D                  A
lord when..when.. when i die
                D
for i know this consolation lord
    E            A
and its comin on bye and bye
 D           A
yes it is... yes it is
 A
you know sometimes i feel like a motherless child
     D                            A
im a long...im a long way from home
A
you know somtimes i fell like a rolling stone
D
im a long...im a long way from home
A            D               A
but jesus a' take me onto glory
                      D
for the road...is so hope to beg
A                     D
yeah and i know this consolation lord
   E                      A
as long as i know you are there
       D             A
yes it is....yes it is.
Добавлено: 10.05.2012
Другие материалы по этой песне:
  • Аккорды и текст

Страница создана 10.05.2012
http://primanota.ru/ian-moore/jesus-wash-away-my-troubles-chords.htm
Привет, Гость.
Предлагаем пройти революционный курс по гитаре.
Подарок от PrimaNota.Ru, забирай!