PrimaNota.ru - самый крупный в мире бесплатный архив песенных текстов, аккордов, табулатур и нот


Ian Moore - Harlem - таба, видео

Регистрация Запомнить меня
Войти через:  Facebook Google Twitter Vk Yandex Mail.ru

Ian Moore - Harlem - таба, видео

Печатать
Просмотров: 107
ian moore- harlem
standard tunning

intro:
:---------------------------------------------|
:---------------------------------------------|
:---10~~~~~-----------------------------------|
:-----------12-10-12--------------------------| 3x
:-------------------12-11-10h11p10\8---8------|
:------------------------------------10--10---|

:----------------------------------------------|
:----------------------------------------------|
:---10~~~~~------------------------------------|
:----------12-10-12----------------------------|
:------------------12-11-10h12p10\8----8/10~~~-|
:-----------------------------------10---------|

:---10\---------------------------------------------------------|
:---10\---------------------------------------------------------|
:---10\---------------------10--12-12b(12)--10h12-10~~~~~-------|
:---12\------------------12-------------------------------12p10-|
:---------------------------------------------------------------|
:---------------------------------------------------------------|

:-------------------10~~~---------------------------------------------------|
:---13b~~~~~~~10-13---------------------------------------------------------|
:--------------------------12b(12)-10-12b--12b--12p10------10~~~------------|
:-----------------------------------------------------12-12-----12p10-------|
:---------------------------------------------------------------------12-10-|
:---------------------------------------------------------------------------|

-----------|
-----------|
-----------|
-----------| end of intro
---8-------|
------10-8-|

verses                            fill
:-------------------------       :--------------------------------------|
:---7\--xxx-xxx-xx--5555--       :--------------------------------------|
:---7\--xxx-xxx-xx--5555--       :---12b(12)p10--9~~~~~~~~~~~-----------|
:---7\--xxx-xxx-xx--5555--       :----------------------------10--12\---|
:-------------------------       :--------------------------------------|
:-------------------------       :--------------------------------------|

ian plays this on my musics playin loudly.

   my   mus - ic's     play  -  ing loud  -  ly,
:---------------------------------------------------------------------------|
:---------------------------------------------------------------------------|
:-9~~~~~~~~~~~~~~~~~~~~~~~~~~~~~~~~~~~~~~---------b7-------b7----b7-----7p5-|
:---------------------------------------------------------------------------|
:---------------------------------------------------------------------------|
:---------------------------------------------------------------------------|

  they   won - der    what   we're  do  -  ing
:--------------------------------------------------|
:--------------------------------------------------|
:-7~~~~~~~~~~~~~~~~~~~~~~~~~~~~~~~~~~~~~~~~~~~~(7)-
:--------------------------------------------------|
:--------------------------------------------------|
:--------------------------------------------------|


chorus:   these are the chords for the chorus not the strumming or the rhy.
    F   G5    D    c    D    F    G    D
:---1----3----x----x----x----1----3----x---|
:---1----3----7----5----7----1----3----7---|
:---2----0----7----5----7----2----0----7---|
:---3----0----7----5----7----3----0----7---|
:---3----x----x----x----x----3----x----x---|
:---1----3----x----x----x----1----3----x---|
Добавлено: 03.06.2012
Другие материалы по этой песне:
  • Аккорды и текст

Страница создана 03.06.2012
http://primanota.ru/ian-moore/harlem-chords.htm
Привет, Гость.
Предлагаем пройти революционный курс по гитаре.
Подарок от PrimaNota.Ru, забирай!