PrimaNota.ru - самый крупный в мире бесплатный архив песенных текстов, аккордов, табулатур и нот


Ian Dury And The Blockheads - Thats Not All - бас-таба, видео

Регистрация Запомнить меня
Войти через:  Facebook Google Twitter Vk Yandex Mail.ru

Ian Dury And The Blockheads - Thats Not All - бас-таба, видео

Печатать
Просмотров: 182
Ian Dury & The Blockheads - That's Not All
Bass, 4 string - Standard EADG
Scale: Eb minor


Intro (notice the first note of every last exactly one beat, don't let it ring -it will 
mess up the feel of the song-)
|----------|----------|----------|-----3----|----------|----------|----------|
|--------4-|----------|--------4-|----------|----------|----------|--------4-|
|6----64---|4---------|6----64---|1-------1-|2----42---|4----4--4-|6----64---|
|-------6--|-----1--4-|-------6--|----------|-------42-|------64--|-------6--|

|----------|
|----------|
|-----4----|
|6---------|

Verse 1 (notice the bassline is exactly the same, with exception in bar 2 -octave on F-)
|----------|----------|----------|-----3----|----------|----------|----------|
|--------4-|-----3----|--------4-|----------|----------|----------|--------4-|
|6----64---|4---------|6----64---|1-------1-|2----42---|4----4--4-|6----64---|
|-------6--|--------4-|-------6--|----------|-------42-|------64--|-------6--|

|----------|
|----------|
|-----4----|
|6---------|

Chorus 1                   x 3
|--------8/10-8--|-----------|
|----------------|-------7---|
|6--664----------|-----------|
|------6---------|5--5505--5-|

|--------8/10-8--|-----------------|
|----------------|----------6-7----|
|6--664----------|6-6-8-9-9--------|
|------6---------|-----------------|

Verse 2: repeat Intro + Verse 1


Chorus 2                   x 3
|--------8/10-8--|-----------|
|----------------|-------7---|
|6--664----------|-----------|
|------6---------|5--5505--5-|

|--------8/10-8--|--------------|
|----------------|--------------|
|6--664----------|6---66---6----|
|------6---------|--6----6------|

Bridge (improvise)          x3
|---------------|------------|
|---------------|------------|
|9------9-------|6----6---6--|
|--11-9----11-9-|--66---6----|

|---------------|------------|
|---------------|------------|
|9------9-------|2-----------|
|--11-9----11-9-|------------|

End
|----------|----------|----------|-----3----|----------|----------|----------|---------|
|--------4-|----------|--------4-|----------|----------|----------|--------4-|---------|
|6----64---|4---------|6----64---|1-------1-|2----42---|4----4--4-|6----64---|6--------|
|-------6--|-----1--4-|-------6--|----------|-------42-|------64--|-------6--|---------|

Note: This is a personal interpretation of the song. Suggestions are welcome. Enjoy!
Добавлено: 08.05.2012
Другие материалы по этой песне:
  • Аккорды и текст

Страница создана 08.05.2012
http://primanota.ru/ian-dury-and-the-blockheads/thats-not-all-chords.htm
Привет, Гость.
Предлагаем пройти революционный курс по гитаре.
Подарок от PrimaNota.Ru, забирай!