PrimaNota.ru - самый крупный в мире бесплатный архив песенных текстов, аккордов, табулатур и нот


Ian Britt - The Shape Of Us - таба, видео

Регистрация Запомнить меня
Войти через:  Facebook Google Twitter Vk Yandex Mail.ru

Ian Britt - The Shape Of Us - таба, видео

Печатать
Просмотров: 167
Уроки эстрадного вокала в Санкт-Петербурге
CAPO 1st fret
Normal Tuning

--------0--------------------0--------------------0--------------------0-------|
-------2-2----2-----0-------2-2----2-----0-------2-2----2-----0-------2-2----2-|
------2------3-----1-------2------3-----1-------2------3-----1-------2------3--|
-----2------2-----2-------2------2-----2-------2------2-----2-------2------2---|
----0------0-----2-------0------0-----2-------0------0-----2-------0------0----|
-------------------------------------------------------------------------------|


ETC... for intro and verses

--------0--------------------0--------------------0--------------------0-------|
-------2-2----2-----0-------2-2----2-----0-------2-2----2-----0-------2-2----2-|
------2------3-----1-------2------3-----1-------2------3-----1-------2------3--|
-----2------2-----2-------2------2-----2-------2------2-----2-------2------2---|
----0------0-----2-------0------0-----2-------0------0-----2-------0------0----|
-------------------------------------------------------------------------------|



Chorus -repeat this for the chorus-
(Hold my hand, hold my heart, let go your tears, darling I will always be here)
--------2--2-------------0-----0---------2--2-------------0-----0--|
-------3--3-----0--0----2-2---2-2-------3--3-----0--0----2-2---2-2-|
------2--2-----1--1----2-----2---------2--2-----1--1----2-----2----|
-----0--0-----2--2----2-----2---------0--0-----2--2----2-----2-----|
-------------2--2----0-----0------------------2--2----0-----0------|
-------------------------------------------------------------------|




Or you can look at it in chord form and pick away as you'd like

(A)        (D-E-A)        (A)        (D-E-A)
You're no longer alone
(A)        (D-E-A)                  (A)        (D-E-A)
We've found a space to name our own
(A)        (D-E-A)                    (A)        (D-E-A)
And there aint no need to fret or fuss
(A)        (D-E-A)                                    (A)        (D-E-A)
We've got all the strength we need in the shape of us
(A)        (D-E-A)      (A)        (D-E-A)
In the shape of us oooooh in the shape of us


(D-D) (E-E) (A--A)
Hold my hand
(D-D) (E-E) (A--A)
Hold my heart
(D-D) (E-E) (A--A)
Let go your fears
(D-D) (E-E) (A--A)
Darling I will always be here


(A)        (D-E-A)        (A)        (D-E-A)
I've never felt quite so at home
(A)        (D-E-A)                  (A)        (D-E-A)
Your sweet caress is the best I've known
(A)        (D-E-A)                    (A)        (D-E-A)
Now that I've proved to you that I'm worthy of your trust
(A)        (D-E-A)                                    (A)        (D-E-A)
Let us build a world in the shape of us
(A)        (D-E-A)      (A)        (D-E-A)
In the shape of us oooooh in the shape of us

(D-D) (E-E) (A--A)
Hold my hand
(D-D) (E-E) (A--A)
Hold my heart
(D-D) (E-E) (A--A)
Let go your fears
(D-D) (E-E) (A--A)
Darling I will always be here

(D-D) (E-E) (A--A)
Darling I will always be here


http://ianbritt.bandcamp.com/track/the-shape-of-us
Добавлено: 20.07.2013
Другие материалы по этой песне:
  • Аккорды и текст

Страница создана 20.07.2013
http://primanota.ru/ian-britt/the-shape-of-us-chords.htm
Привет, Гость.
Предлагаем пройти революционный курс по гитаре.
Подарок от PrimaNota.Ru, забирай!