PrimaNota.ru - самый крупный в мире бесплатный архив песенных текстов, аккордов, табулатур и нот


Iamerror - The Sonic Song - бас-таба, видео

Регистрация Запомнить меня
Войти через:  Facebook Google Twitter Vk Yandex Mail.ru

Iamerror - The Sonic Song - бас-таба, видео

Печатать
Просмотров: 176
-------------------------------------------------------------------------------
                             The Sonic Song - Iamerror
-------------------------------------------------------------------------------

Tabbed By : mjhe23de (same youtube name)
e-mail: mjhe23deb@gmail.com

Tuning: Drop-D


G|--------------------------------------------------------------------------|
D|----------------------------(11 not 1)------------------------------------|
A|------------------------------------------------------------------[X4]----|
D|7-7-7-7-7-7-7-7-4-4-4-4-4-4-4-4-11-11-11-11-11-11-11-11-9-9-9-9-9-9-9-9---|

G|--------------------------------------------------------------------------|
D|------------------------------(11 not 1)----------------------------------|
A|------6---------------------6---------------------------------------[X4]--|
D|7-77-7--4444444-11-111111-11---9-9-9-9-11-9-------------------------------|

G|--------------------------------------------------------------------------|
D|--------------------------------------------------------------------------|
A|--------------------------------------------------------------------------|
D|0000000---00000000---00000000---00000000--2---------------------[X2]------|

G|--------------------------------------------------------------------------|
D|--------------------------------------------------------------------------|
A|------------------------------------------------------------------[X4]----|
D|7-7-7-7-7-7-7-7-4-4-4-4-4-4-4-4-11-11-11-11-11-11-11-11-9-9-9-9-9-9-9-9---|

G|--------------------------------------------------------------------------|
D|--------------------------------------------------------------------------|
A|-----64-------------------9-----------------------------------------------|
D|7-7-7--4-4-4-4----11-11-11-9-9-9-6-----------------[X4]-------------------|

G|--------------------------------------------------------------------------|
D|--------------------------------------------------------------------------|
A|--------------------------------------------------------------------------|
D|00000000---00000000---00000000---00000000--2--------------[X3]------------|

G|--------------------------------------------------------------------------|
D|--------------------------------------------------------------------------|
A|--------------------------------------------------------------------------|
D|7-7-7-7-7-7-7-4-4-4-4-4-4-4-4-11-11-11-11-11-11-11-11-9-9-9-9-9-9-9-9-[X4]|

G|-No Bass From (2:18 - 3:04)-----------------------------------------------|
D|--------------------------------------------------------------------------|
A|--------------------------------------------------------------------------|
D|--------------------------------------------------------------------------|

G|--------------------------------------------------------------------------|
D|-------( it's 1 then open not 10------------------------------------------|
A|--------------------------------------------------------------------------|
D|00010-10-0010--00010-10-0013---------------------------------[X8]---------|


| /  slide up
| \  slide down
| h  hammer-on
| p  pull-off
| ~  vibrato
| +  harmonic
| x  Mute note
===============================================================================  
Добавлено: 15.07.2013
Другие материалы по этой песне:
  • Аккорды и текст

Страница создана 15.07.2013
http://primanota.ru/iamerror/the-sonic-song-chords.htm
Привет, Гость.
Предлагаем пройти революционный курс по гитаре.
Подарок от PrimaNota.Ru, забирай!