PrimaNota.ru - самый крупный в мире бесплатный архив песенных текстов, аккордов, табулатур и нот


I Thought I Heard A Zombie - Weeping - таба, видео

Регистрация Запомнить меня
Войти через:  Facebook Google Twitter Vk Yandex Mail.ru

I Thought I Heard A Zombie - Weeping - таба, видео

Печатать
Просмотров: 52
Intro:
e[--------------------------------------------------------------------]
B[--------14h15p14h15-------14h15p14-------14h15p14h15-------14h15p14-]
G[--11-11-------------12-12----------14-14-------------16-16----------]
D[--------------------------------------------------------------------]
A[--------------------------------------------------------------------]
D[--------------------------------------------------------------------]

Chorus:
e[-------------------------------------------------------]
B[-------------------------------------------------------]
G[--------------------11--11-9---------------------------]
D[--9-9-11-9-11-12-7-7-7-7-7-7--5-5-7-5-7-9-5-5-7-5-7-9--]
A[--9-9-9--9-9--9--7-7-7-7-7-7--5-5-5-5-5-5-5-5-5-5-5-5--]
D[--9-9-9--9-9--9--7-7-7-7-7-7--5-5-5-5-5-5-5-5-5-5-5-5--]

Verse 1&2 Beginning:
e[----------------------------------------------------------]
B[----------------------------------------------------------]
G[----------------------------------------------------------]
D[--9--9-9-9-9-9--7--7-7-7-7-7--5--5-5-5-5-5--5--5-5-5-5-5--]
A[--9--9-9-9-9-9--7--7-7-7-7-7--5--5-5-5-5-5--5--5-5-5-5-5--]
D[--9--9-9-9-9-9--7--7-7-7-7-7--5--5-5-5-5-5--5--5-5-5-5-5--]
      pm........    pm........    pm........    pm........
Verse 1&2 End:
e[---------------------------------------------------------]
B[---------------------------------------------------------]
G[---------------------------------------------------------]
D[--9--9-9-9-9-9--7--7-7-7-7-7--5--5-5-5-5-5--5-5-5-7-7-7--]
A[--9--9-9-9-9-9--7--7-7-7-7-7--5--5-5-5-5-5--5-5-5-7-7-7--]
D[--9--9-9-9-9-9--7--7-7-7-7-7--5--5-5-5-5-5--5-5-5-7-7-7--]
      pm........    pm........    pm........
End:
e[-----------------]
B[-----------------]
G[-----------------]
D[--9-9-7-7-5-5~~~-]
A[--9-9-7-7-5-5~~~-]
D[--9-9-7-7-5-5~~~-]

Order:

Intro x2
Chorus x2
V 1&2 beg. x2
v 1&2 end x2
Chorus x6
V 1&2 beg. x2
V 1&2 end x2
Chorus x20
End 

Key:
pm... Palm Mute
h Hammer-on
p Pull-off
~ hold chord out
Добавлено: 28.10.2013
Другие материалы по этой песне:
  • Аккорды и текст

Страница создана 28.10.2013
http://primanota.ru/i-thought-i-heard-a-zombie/weeping-chords.htm
Привет, Гость.
Предлагаем пройти революционный курс по гитаре.
Подарок от PrimaNota.Ru, забирай!