PrimaNota.ru - самый крупный в мире бесплатный архив песенных текстов, аккордов, табулатур и нот


I The Mighty - I The Mighty Defeatist - аккорды и текст, видео

Регистрация Запомнить меня
Войти через:  Facebook Google Twitter Vk Yandex Mail.ru

I The Mighty - I The Mighty Defeatist - аккорды и текст, видео

Печатать
Просмотров: 149
I The Mighty Defeatist
I The Mighty
I'm really surprised that no one has uploaded tabs for this. I like to make a hybrid 
between chords and tabs
because it's the way that I like to play guitar and sing by myself. I hope all sounds 
great and I'll be updating
the few lead parts that I'm missing very soon


      Abm  B    F#   E    Dbm  Ebm  E5   Gb
E|----4----2----2----0----4----6----7----9-----|
B|----4----4----2----0----5----7----9----11----|
G|----4----4----3----1----6----8----9----11----|
D|----6----4----4----2----6----8----9----11----|
A|----6----2----4----2----4----6----7----9-----|
E|----4---------2----0-------------------------|

Intro:

If imagery could walk out of my head,

E|-------11----------11--------6-------6-------0-------0-------6-------6---|
B|----12----12----12----12---8---8---8---8---5---5---5---5---4---4---4---4-|
G|-13----------13----------8-------8-------6-------6-------4-------4-------|
D|-------------------------------------------------------------------------|
A|-------------------------------------------------------------------------|
E|-------------------------------------------------------------------------|

you'd see yourself in bed with me.

E|-------11----------11--------6-------6-------3-------3-------3-------3---|
B|----12----12----12----12---4---4---4---4---4---4---4---4---4---4---4---4-|
G|-13----------13----------4-------4-------3-------3-------3-------3-------|
D|-------------------------------------------------------------------------|
A|-------------------------------------------------------------------------|
E|-------------------------------------------------------------------------|


Lead verse(second time the 8 is not included at the end):

E|--------------------------11------------------------------------------|
B|------------------12--14------9------------------------9--6-----------|
G|--13--13--11--13-----------------10-------------8--11--------6-----8--|
D|-------------------------------------11--9--11------------------6-----|
A|----------------------------------------------------------------------|
E|----------------------------------------------------------------------| x2


Verse chord pluck pattern(you can strum it if you feel like it):

Abm, B, F#

    Abm      B        F#
E|--------------------------------------|
B|--------------------------------------|
G|--------------4-----------------6-----|
D|-----6-----------4-----4-----3--------|
A|--------6--2--------------4--------4--|
E|--4-----------------2-----------------|


      Abm      B           F#
I can hear you through the walls.
        Abm   B          F#
Can you quiet down those moans, I'm the jealous type.
Abm   B            F#              Abm          B     F#
Never thought that I would see you string me up by my own two feet.
Abm   B              F#
Dirty writing in the stalls
        Abm        B    F#
And you won't return my calls, I feel like a speck.
Abm      B        F#             Abm         B      F#
A single grain of sand atop your honey beach-bodied golden tan.
    E
I'm praying there's no waves.


    Abm       B    F#
But where did I go wrong?
           B             E
Was it the bottle or the bong?
Dbm          Ebm        E5       Gb
Cross fade - sleep till noon the next day.
Abm       B    F#
Where did I go wrong?
             B             E
I've been to happy for too long.
    Dbm   Ebm    E5        Gb     B
But lo' I rarely conquered when I came.


       Abm     B           F#
People filling cups half full.
          Abm       B   F#
The music choice is typical, just so we can yell.
Abm   B          F#                Abm        B        F#
Never taste just one eye-candy you never know how this night could go.
    Abm    B                F#
I'm trying hard to make you swoon
                      Abm       B   F#
but there are so many bodies in one room it'll make you sweat.
Abm       B     F#           Abm       B    F#
Oh, how a brief intoxication causes so many hearts to break.
    E
I'm praying I'm not one.


    Abm       B    F#
But where did I go wrong?
           B             E
Was it the bottle or the bong?
Dbm          Ebm        E5       Gb
Cross fade - sleep till noon the next day.
Abm       B    F#
Where did I go wrong?
             B             E
I've been to happy for too long.
    Dbm   Ebm    E5        Gb     B
But lo' I rarely conquered when I came.


(During the refrain, just play the chords for the verse. I'll learn the part by ear soon.)


(For this part, you can either choose to repeat the intro pattern OR play the chords 
that are coming up earlier
and just repeat them twice)

If imagery could walk out of my head,
you'd see yourself in bed with me.
      Ab   Eb Dbm   Abm       E5         B          Eb
But before I say anymore, you never even knew me at all.
      E5         Abm        F#           E
I'm a liar I'm a liar I'm a liar I'm a liar.


(Will update guitar lead for here soon)


    Abm       B    F#
But where did I go wrong?
           B             E
Was it the bottle or the bong?
Dbm          Ebm        E5       Gb
Cross fade - sleep till noon the next day.
Abm       B    F#
Where did I go wrong?
             B             E
I've been to happy for too long.
    Dbm   Ebm    E5        Gb     B      E5  Gb B
But lo' I rarely conquered when I came...When I came.
Добавлено: 09.08.2015
Другие материалы по этой песне:
  • Аккорды и текст

Страница создана 09.08.2015
http://primanota.ru/i-the-mighty/i-mighty-defeatist-chords.htm
Привет, Гость.
Предлагаем пройти революционный курс по гитаре.
Подарок от PrimaNota.Ru, забирай!