PrimaNota.ru - самый крупный в мире бесплатный архив песенных текстов, аккордов, табулатур и нот


I The Mighty - Ghost - таба, видео

Регистрация Запомнить меня
Войти через:  Facebook Google Twitter Vk Yandex Mail.ru

I The Mighty - Ghost - таба, видео

Печатать
Просмотров: 208
Okay, so this is my first tab, so it's probably wrong, but it sounds right (mostly). I
know part of the chorus is incorrect,
the first part, but I don't have a very good ear and it sounded close enough and not
terrible. Uhm.. in between the repeated
chorus there's a guitar part that I decided not to even try to mess with because I'm
pretty new at this, but I thought this
was a good start. You might think differently, that's cool. Standard tuning, no capo, 
enjoy (:

Intro
e|---------------------------------|
B|---------------------------------|
G|---------------------------------|
D|-0-0-0-0-0-0-0-0-0-0-0-0-0-0-0-0-|
A|---------------------------------|
E|3-3-3-3-5-5-5-5-3-3-3-3-5-5-5-5--|

Verse sections - Repeat three times
e|-----------------------------------------------------------------|
B|-----------------------------------------------------------------|
G|-----------------------------------------------------------------|
D|-0-0-0-0-0-0-0-0-0-0-0-0-0-0-0-0-0-0-0-0-0-0-0-0-0-0-0-0-0-0-0-0-|
A|-----------------------------------------------------------------|
E|3-3-3-3-5-5-5-5-3-3-3-3-5-5-7-5-3-3-3-3-5-5-5-5-8-8-8-8-8-8-8-8--|
  You're a cold and violent wind, you're an enemy amongst a sea of friends, who will not
soon forget your face
  You're the worm inside a bird, you're the voice who calls for help that's never heard.
You linger on your words, what to say.
  You're a creek in need of rain. You're the showers that came just a day too lake. The
drought that dried the lake, hey hey.

Chorus
e|-----------------------------------------------------------------|
B|-----------------------------------------------------------------|
G|-----------------------------------------------------------------|
D|-0-0-0-0-0-0-0-0-0-0-0-0-0-0-0-0-0-0-0-0-0-0-0-0-0-0-0-0-0-0-0-0-|
A|-----------------------------------------------------------------|
E|3-3-3-3-5-5-5-5-7-7-5-5-3-3-3-3-6-6-6-6-7-7-5-5-3-3-3-3-3-3-3-3--|
  But look what you have done, do you see what you've become? You communicate and it's 
already begun.

Verse sections - Repeat two times
e|-----------------------------------------------------------------|
B|-----------------------------------------------------------------|
G|-----------------------------------------------------------------|
D|-0-0-0-0-0-0-0-0-0-0-0-0-0-0-0-0-0-0-0-0-0-0-0-0-0-0-0-0-0-0-0-0-|
A|-----------------------------------------------------------------|
E|3-3-3-3-5-5-5-5-3-3-3-3-5-5-7-5-3-3-3-3-5-5-5-5-8-8-8-8-8-8-8-8--|
  You're the dead fur on a coat, you're the antidote that can but won't be sold, the 
cough inside a cold
  You're the emptiness in black, you're the stoled gold inside a robber's sack who will
not give you back, no no.

Chorus - Repeat once
e|-----------------------------------------------------------------|
B|-----------------------------------------------------------------|
G|-----------------------------------------------------------------|
D|-0-0-0-0-0-0-0-0-0-0-0-0-0-0-0-0-0-0-0-0-0-0-0-0-0-0-0-0-0-0-0-0-|
A|-----------------------------------------------------------------|
E|3-3-3-3-5-5-5-5-7-7-5-5-3-3-3-3-6-6-6-6-7-7-5-5-3-3-3-3-3-3-3-3--|
  But look what you have done, do you see what you've become? You communicate and it's 
already begun.

Verse section - once
e|-----------------------------------------------------------------|
B|-----------------------------------------------------------------|
G|-----------------------------------------------------------------|
D|-0-0-0-0-0-0-0-0-0-0-0-0-0-0-0-0-0-0-0-0-0-0-0-0-0-0-0-0-0-0-0-0-|
A|-----------------------------------------------------------------|
E|3-3-3-3-5-5-5-5-3-3-3-3-5-5-7-5-3-3-3-3-5-5-5-5-8-8-8-8-8-8-8-8--|
  You're the ghost inside this room, you're the soul who lost its way we must assume.
And you won't be leaving soon.
Добавлено: 22.08.2013
Другие материалы по этой песне:
  • Аккорды и текст

Страница создана 22.08.2013
http://primanota.ru/i-the-mighty/ghost-chords.htm
Привет, Гость.
Предлагаем пройти революционный курс по гитаре.
Подарок от PrimaNota.Ru, забирай!