PrimaNota.ru - самый крупный в мире бесплатный архив песенных текстов, аккордов, табулатур и нот


I The Breather - Knights And Pawns - таба, видео

Регистрация Запомнить меня
Войти через:  Facebook Google Twitter Vk Yandex Mail.ru

I The Breather - Knights And Pawns - таба, видео

Печатать
Просмотров: 150
KNIGHTS AND PAWNS
As recorded by I the Breather
(From the 2013 Album TRUTH AND PURPOSE)

Gtr I (C G C F A D)
Gtr II (C G C F A D)


   4/4
    Gtr I
     S E E  S S S  E E  S E  S  4x     S E E S S S E E S E S  8x
||------------------------------||-||-------------------------||-|
||o----------------------------o||-||o-----------------------o||-|
||------------------------------||-||-------------------------||-|
||------------------------------||-||-------------------------||-|
||o----------------------------o||-||o-0-0-0-0-0-0-0-0-0-0-0-o||-|
||--12-0-0-12-0-0-12-0-12-0-13--||-||--0-0-0-0-0-0-0-0-0-0-0--||-|


    Gtr II
                       Q.  Q.  Q.  Q.  H    4x
||-------------------------5---6---3---5----||----|
||o--------------------3-------------------o||----|
||------------------------------------------||----|
||------------------------------------------||----|
||o----------------------------------------o||----|
||------------------------------------------||----|


    Gtr I
     S E E  S S S  E E  S E  S  4x      S E E S  S E E S  S  S  S  S
||------------------------------||-||--------------------------------|
||o----------------------------o||-||o-------------------------------|
||------------------------------||-||--------------------------------|
||------------------------------||-||--------------------------------|
||o----------------------------o||-||o-------------------13-------12-|
||--12-0-0-12-0-0-12-0-12-0-13--||-||--12-0-0-0-13-0-0-0----13-12----|


   S E E S  S E E S  S  S  S  S    4x
|----------------------------------||
|---------------------------------o||
|----------------------------------||
|----------------------------------||
|-------------------------12-13---o||
|-12-0-0-0-13-0-0-0-12-13----------||


    Gtr II
    Q.  Q.  Q.  Q.  H
||------5---6---3---5--||----|
||o-3-----------------o||----|
||---------------------||----|
||---------------------||----|
||o-------------------o||----|
||---------------------||----|


    Gtr I
    S E E S S E E S S S S S  4x
||---------------------------||
||o-------------------------o||
||---------------------------||
||--0-0-0-0-0-0-0-0-0-0-0-0--||
||o-0-0-0-0-0-0-0-0-0-0-0-0-o||
||--1-1-1-1-1-1-1-1-1-1-1-1--||


  S E E S S E E S S S S S   S E E S S E E S  S  S  S  S
|-------------------------|-----------------------------|
|-------------------------|-----------------------------|
|-------------------------|-----------------------------|
|-0-0-0-0-0-0-0-0-0-0-0-0-|-0-0-0-0-0-0-0-0-------------|
|-0-0-0-0-0-0-0-0-0-0-0-0-|-0-0-0-0-0-0-0-0-13-------12-|
|-0-0-0-0-0-0-0-0-0-0-0-0-|-0-0-0-0-0-0-0-0----13-12----|


    Gtr I
    S E E S S E E S S S S S
||---------------------------||-|
||o-------------------------o||-|
||---------------------------||-|
||--0-0-0-0-0-0-0-0-0-0-0-0--||-|
||o-0-0-0-0-0-0-0-0-0-0-0-0-o||-|
||--0-0-0-0-0-0-0-0-0-0-0-0--||-|


    E S E E S S S E E S S S E E S S S E S E E.  4x
||----------------------------------------------||-|
||o--------------------------------------------o||-|
||----------------------------------------------||-|
||----------------------------------------------||-|
||o-5-----------------6-6-6--------------------o||-|
||----0-0-1-0-0-0-0-1-------0-1-0-0-0-0-0-0-0---||-|


  Gtr I
  E. E. E     E. E. E. E S S S S S E. E. E S S S S S S S S
|---------||------------------------------------------------||-|
|---------||o----------------------------------------------o||-|
|---------||------------------------------------------------||-|
|---------||------------------------------------------------||-|
|---------||o----------------------------------------------o||-|
|-0--0--0-||--0--0--0--0-0-0-0-0-0-0--0--0-1-1-1-1-3-3-3-3--||-|


       Gtr I
    E. E. E. E S S S S S   E. E. E S S S S S S S S
||-----------------------|--------------------------||
||o----------------------|-------------------------o||
||-----------------------|--------------------------||
||-----------------------|--------------------------||
||o----------------------|-------------------------o||
||--0--0--0--0-0-0-0-0-0-|-0--0--0-1-1-1-1-3-3-3-3--||


    Gtr II
     S S S  S S  S S  S S  S S S  S S  S S  4x
||--10--------------------10----------------||-|
||o-----------9-10-9----------------9-10-9-o||-|
||-----7-9-10--------10-9----7-9-10---------||-|
||------------------------------------------||-|
||o----------------------------------------o||-|
||------------------------------------------||-|


    Gtr I
    S S S S S S S S S S S S S S S S S S S S S S S S S S S S S S S S
||--------------------------------------------------------------------|
||o-------------------------------------------------------------------|
||--------------------------------------------------------------------|
||--------------------------------------------------------------------|
||o-0-0-0-0-0-0-0-0-0-0-0-0-0-0-0-0-8-8-8-8-8-8-8-8-8-8-8-8-8-8-8-8---|
||--0-0-0-0-0-0-0-0-0-0-0-0-0-0-0-0-8-8-8-8-8-8-8-8-8-8-8-8-8-8-8-8---|


         Gtr II
    Q.   Q.   Q.   Q.   Q  Q
||------------1----0----------|
||o------3--------------2--3--|
||----------------------------|
||--0-------------------------|
||o---------------------------|
||----------------------------|


  Gtr I
  S S S S S S S S S S S S S S S S   S S S S S S S S S S S S S S S S
|---------------------------------|----------------------------------||
|---------------------------------|---------------------------------o||
|---------------------------------|----------------------------------||
|---------------------------------|----------------------------------||
|-0-0-0-0-0-0-0-0-0-0-0-0-0-0-0-0-|-7-7-7-7-7-7-7-7-7-7-7-7-7-7-7-7-o||
|-0-0-0-0-0-0-0-0-0-0-0-0-0-0-0-0-|-7-7-7-7-7-7-7-7-7-7-7-7-7-7-7-7--||


  Gtr II
  Q.   Q.   Q.    Q.   H
|-----------0-----1----4-----||-|
|------3--------------------o||-|
|----------------------------||-|
|-0--------------------------||-|
|---------------------------o||-|
|----------------------------||-|


  Gtr II
  Q.   Q.   Q.   Q.   Q  Q
|-----------1----0----------|
|------3--------------2--3--|
|---------------------------|
|-0-------------------------|
|---------------------------|
|---------------------------|


    Gtr I
    E S E E S S S E E S S S E E S S S E S E E S  4x
||-----------------------------------------------||-|
||o---------------------------------------------o||-|
||-----------------------------------------------||-|
||-----------------------------------------------||-|
||o-0-0-0-0-0-0-0-0-0-0-0-0-0-0-0-0-0-0-0-0-0-0-o||-|
||--0-0-0-0-0-0-0-0-0-0-0-0-0-0-0-0-0-0-0-0-0-0--||-|


    Gtr II
    Q.   Q.   Q.   Q.   Q  Q  Q.   Q.   Q.   Q.   H  4x
||------------1----0--------------------0----1----4--||----|
||o------3--------------2--3-------3----------------o||----|
||---------------------------------------------------||----|
||--0-------------------------0----------------------||----|
||o-------------------------------------------------o||----|
||---------------------------------------------------||----|


    E S E E S S S E E S S S E E S S S E S E E S
||-----------------------------------------------||
||o---------------------------------------------o||
||-----------------------------------------------||
||-----------------------------------------------||
||o---------------------------------------------o||
||--0-0-0-0-0-0-0-0-0-0-0-0-0-0-0-0-0-0-0-0-0-0--||




--------------------------------------------------------------------------------


Duration Legend
---------------
W - whole; H - half; Q - quarter; E - 8th; S - 16th; T - 32nd; X - 64th; a - acciaccatura
+ - note tied to previous; . - note dotted; .. - note double dotted
Uncapitalized letters represent notes that are staccato (1/2 duration)
Irregular groupings are notated above the duration line
Duration letters will always appear directly above the note/fret number it represents the
duration for.  Duration letters with no fret number below them represent rests.  Multi-
bar rests are notated in the form Wxn, where n is the number of bars to rest for.  Low
melody durations appear below the staff

Tablature Legend
----------------
 h   - hammer-on
 p   - pull-off
 b   - bend
 pb  - pre-bend
 r   - bend release (if no number after the r, then release immediately)
 /\  - slide into or out of (from/to "nowhere")
 s   - legato slide
 S   - shift slide
 - natural harmonic
[n]  - artificial harmonic
n(n) - tapped harmonic
 ~   - vibrato
 tr  - trill
 T   - tap
 TP  - trem. picking
 PM  - palm muting
\n/  - tremolo bar dip; n = amount to dip
 \n  - tremolo bar down
 n/  - tremolo bar up
/n\  - tremolo bar inverted dip
 =   - hold bend; also acts as connecting device for hammers/pulls
 <> - volume swell (louder/softer)
 x   - on rhythm slash represents muted slash
 o   - on rhythm slash represents single note slash

Misc Legend
-----------
 |  - bar
||  - double bar
||o - repeat start
o|| - repeat end
*|  - double bar (ending)
 :  - bar (freetime)
 $  - Segno
 &  - Coda
Tempo markers -  = BPM(8/16=s8/s16), where s8 = swing 8ths, s16 = swing 16ths



--------------------------------------------------------------------------------


Добавлено: 07.07.2013
Вам также может быть интересно:
Другие материалы по этой песне:
  • Аккорды и текст

Страница создана 07.07.2013
http://primanota.ru/i-the-breather/knights-and-pawns-chords.htm
Привет, Гость.
Предлагаем пройти революционный курс по гитаре.
Подарок от PrimaNota.Ru, забирай!