PrimaNota.ru - самый крупный в мире бесплатный архив песенных текстов, аккордов, табулатур и нот


I The Breather - God Rest Ye Merry Gentlemen - таба, видео

Регистрация Запомнить меня
Войти через:  Facebook Google Twitter Vk Yandex Mail.ru

I The Breather - God Rest Ye Merry Gentlemen - таба, видео

Печатать
Просмотров: 105
I, The Breather - God Rest Ye Merry Gentlemen
Tuning: Drop C   [C G C F A d]

d|------------------------------------|------------------------------------|
A|------------------------------------|------------------------------------|
F|-----9-9-7------------------7-9*----|-----9-9-7------------------7-9-----|
C|-7-7-------10-9-7----7-9-10---------|-7-7-------10-9-7----7-9-10---------|
G|------------------10----------------|------------------10----------------|
C|------------------------------------|------------------------------------|

d|------------------------------------|----------------------------------------|
A|-------------8-10-------------------|----------------------------------------|
F|-9-10-7-9-10------9-7-----------7---|----7-9---10-9-9-7-----------------7----|
C|----------------------10-7-9-10-----|-10----------------10-9-7---10p9p7------|
G|------------------------------------|----------------------------------------|
C|------------------------------------|----------------------------------------|

d|-------------------------------|
A|-----------8-10----------------|
F|----7-9-10------9-7------------|
C|-10-----------------10-9-7-----|
G|-------------------------------|
C|-------------------------------|

d|---------------------------------|---------------------------------|
A|---------------------------------|---------------------------------|
F|---------------------------------|---------------------------------|
C|-----2-2---2-2---------------0-2-|---------------2-2---2-2---------|
G|-----------------------0-2-3-----|---------------------------------|
C|-0-0-----0-----0-0-0-0-----------|-----0-0-0-0-0-----0-----0-0-0-0-|

d|---------------------------------|---------------------------------|
A|---------------------------------|---------------------------------|
F|---------------------------------|---------------------------------|
C|-------0-2-----------------------|-------2---0-2-3-----2-3-5---7-3-|
G|-0-2-3---------------------------|-0-------3-----------------------|
C|---------------0-0-0-0-3-0-2-3-5-|---3-2---------------------------|

d|----------------------------------|-----------------------------------|
A|----------------------------------|-8-10------------------------------|
F|-----------------------------9-10-|------9-7--------------------------|
C|-2-0---------------0--------------|----------10-9-7*------------------|
G|-----3-2-0---3p2p0-------3-5------|-----------------------------------|
C|----------------------------------|-----------------------------------|

d|------------------------------------|---------------------------------|
A|------------------------------------|---------------------------------|
F|-----9-9-7------------------7-9-----|---------------------------------|
C|-7-7-------10-9-7----7-9-10---------|-000-000-1-111-1-1-111-1-111-1-1-|
G|------------------10----------------|-000-000-1-111-1-1-111-1-111-1-1-|
C|------------------------------------|-000-000-1-111-1-1-111-1-111-1-1-|
                                        \_/ \_/ \_____/ \_____/

d|---------------------------------|---------------------------------------|
A|---------------------------------|---------------------------------------|
F|---------------------------------|-9---10-9-9-7-----------------7------7-|
C|-----------------2---0-2-3---2-3-|--------------10-9-7---10p9p7-----10---|
G|-----------0-------3-------------|---------------------------------------|
C|-3-0-2-3-5---3-2-----------------|---------------------------------------|

d|---------------------------------|----------------------------------|
A|---------------------------------|----------------------------------|
F|---------------------------------|----------------------------------|
C|---------------------------------|----------------------------------|
G|-000-000---0000---0000---000000--|-0-0-00-00---0000---0000---000000-|
C|-000-000---0000---0000---000000--|-0-0-00-00---0000---0000---000000-|

d|-----------------|
A|-----------------|
F|-----------------|
C|-----7-----------|
G|-0-0-0-----------|
C|-0-0-0-----------|

d|------------------------------------|------------------------------------|
A|------------------------------------|------------------------------------|
F|-----9-9-7------------------7-9-----|-----9-9-7------------------7-9-----|
C|---7-------10-9-7----7-9-10---------|-7-7-------10-9-7----7-9-10---------|
G|------------------10----------------|------------------10----------------|
C|------------------------------------|------------------------------------|

d|------------------------------------|----------------------------------|
A|-------------8-10-------------------|----------------------------------|
F|-9-10-7-9-10------9-7-----------7---|-9---10-9-9-7-----------------7---|
C|----------------------10-7-9-10-----|--------------10-9-7---10p9p7-----|
G|------------------------------------|----------------------------------|
C|------------------------------------|----------------------------------|

d|---------------------------------|----------------------------------|
A|-----------8-10------------------|----------------------------------|
F|----7-9-10------9-7--------------|----------------------------------|
C|-10-----------------10-9-7-------|--------------------------6-------|
G|---------------------------------|----------------------------------|
C|---------------------------------|----------------------------------|

d|---------------------------------|
A|---------------------------------|
F|---------------------------------|
C|---------------------------6-6-6-|
G|---------------------------0-0-0-|
C|---------------------------0-0-0-|
Добавлено: 11.08.2015
Другие материалы по этой песне:
  • Аккорды и текст

Страница создана 11.08.2015
http://primanota.ru/i-the-breather/god-rest-ye-merry-gentlemen-chords.htm
Привет, Гость.
Предлагаем пройти революционный курс по гитаре.
Подарок от PrimaNota.Ru, забирай!