PrimaNota.ru - самый крупный в мире бесплатный архив песенных текстов, аккордов, табулатур и нот


I The Breather - False Profit - таба, видео

Регистрация Запомнить меня
Войти через:  Facebook Google Twitter Vk Yandex Mail.ru

I The Breather - False Profit - таба, видео

Печатать
Просмотров: 316
Уроки эстрадного вокала в Санкт-Петербурге
False profit - I the breather tab

tuning - drop c


Intro

0:45

D-10-------10-----------------------------------------| play for whole intro
A---10-11----10-11------------------------------------|
F-----------------12----------------------------------|
C-----------------------------------------------------|
G-----------------------------------------------------|
C-----------------------------------------------------|


part at 1:11

D-----------------------------------------------------| x5
A-----------------------------------------------------|
F-----------------------------------------------------|
C-0~---7--------------7810----------------------------|
G-0~-----5--1/5-0--578------0-8-0---------------------|
C-0~----0-0-----0-------------------------------------|
        * *     *

1:27-1:46
D-----------------------------------------------------|
A-----------------------------------------------------|
F----14-15-14-12-14-----------------------------------|
C-12--------------------------------------------------|
G-----------------------------------------------------|
C-----------------------------------------------------|


1:46-1:55
they are play the open note listen to the track and try to figure out the pattern
D----------|
A----------|
F----------|
C-0--------|
G-0--------|
C-0--------|

1:55-2:05
D-----------------------------------------------------|
A-----------------------------------------------------|
F----14-15-14-12-14-----------------------------------|
C-12--------------------------------------------------|
G-----------------------------------------------------|
C-----------------------------------------------------|

2:05-2:37
D-10-------10-----------------------------------------|
A---10-11----10-11------------------------------------|
F-----------------12----------------------------------|
C-----------------------------------------------------|
G-----------------------------------------------------|
C-----------------------------------------------------|

2:37-2:50
D-----------------------------------------------------|
A-----------------------------------------------------|
F-----------------------------------------------------|
C-7--------7--------------7---------------------------|
G---------------------5-8---8-------------------------|
C--0-5h7-0--0-5h7-0-0---------------------------------|
   *     *  *     * *

2:50-3:03
D-----------------------------------------------------|
A-----------------------------------------------------|
F-----------------------------------------------------|
C--777-0-777-0-777-0-7-888-0-888-0-888-0--------------|
G-----------------------------------------------------|
C-----------------------------------------------------|


3:03-3:15
D--------------------------10------------------------|
A-8-10-8-11-8-10-8-11-8-10----10-11-10---------------|
F----------------------------------------------------|
C----------------------------------------------------|
G----------------------------------------------------|
C----------------------------------------------------|


3:15-3:41
D-10-------10-----------------------------------------|
A---10-11----10-11------------------------------------|
F-----------------12----------------------------------|
C-----------------------------------------------------|
G-----------------------------------------------------|
C-----------------------------------------------------|

3:41-3:48
D-----------------------------------------------------|
A-----------------------------------------------------|
F-----------------------------------------------------|
C-0~----------0~--------------------------------------|
G-0~----------0~--------------------------------------|
C-0~----------0~--------------------------------------|

3:48-4:02
they are play the open note listen to the track and try to figure out the pattern
D----------|
A----------|
F----------|
C-0--------|
G-0--------|
C-0--------|

4:02-4:36
D-10-------10-----------------------------------------|
A---10-11----10-11------------------------------------|
F-----------------12----------------------------------|
C-----------------------------------------------------|
G-----------------------------------------------------|
C-----------------------------------------------------|
Добавлено: 02.10.2013
Другие материалы по этой песне:

Страница создана 02.10.2013
http://primanota.ru/i-the-breather/false-profit-chords.htm
Привет, Гость.
Предлагаем пройти революционный курс по гитаре.
Подарок от PrimaNota.Ru, забирай!