PrimaNota.ru - самый крупный в мире бесплатный архив песенных текстов, аккордов, табулатур и нот


I Set My Friends On Fire - Reeses Pieces I Dont Know Who John Cleese Is - текст песни, таба, бас-таба, видео

Регистрация Запомнить меня
Войти через:  Facebook Google Twitter Vk Yandex Mail.ru

I Set My Friends On Fire - Reeses Pieces I Dont Know Who John Cleese Is - текст песни, таба, бас-таба, видео

Печатать
Просмотров: 231
Reese's Pieces, I Don't Know Who John Cleese Is
By: I Set My Friends on Fire

Tabbed by Jeff Peterson

This is the first tab for this song.. think i got most of it correct
ENJOY!!!!

KEY
* = Pull off
^ = Pinched harmonic
. = Palm mute
~ = Vibrato (hold out note)

Drop C tunning


INTRO/KEYS: 0:00 - 0:21

D|----------------------------------------------------------------------------|
A|---6-------10--------5-----6----10-----------11---10---6------8~~-----------|
F|-------7--------7---------------------7-------------------7-----------------|
C|----------------------------------------------------------------------------|
G|----------------------------------------------------------------------------|
C|----------------------------------------------------------------------------|

D|---------------------------------------------------------------------------|
A|---10----11----10---6-----5---6---8------5-6-8---10------6----5----6--8--6-|
F|-----------------------7-----------------------------------7-------------7-|
C|---------------------------------------------------------------------------|
G|---------------------------------------------------------------------------|
C|---------------------------------------------------------------------------|

VERSE 1: Oh its a shame..  0:22 - 0:55
D|----------------------------------------------------------------------------|
A|----------------------------------------------------------------------------|
F|----------------------------------------------------------------------------|
C|----0--------5------8-------0-------5---8-----------------------------------|
G|----0--------5------8-------0-------5---8-----------------------------------|
C|----0--------5------8-------0-------5---8-----------------------------------|

D|-----------------------------------------------------------------------------|
A|-----------------------------------------------------------------------------|
F|-----------------------------------------------------------------------------|
C|----8~~----10~----------8~~---10~------0~~--------0--------------------------|
G|----8~~----10~----------8~~---10~------0~~--------0--------------------------|
C|----8~~----10~----------8~~---10~------0~~--------0--------------------------|
BREAK AT :56 - 1:23

VERSE 2: "I LEFT YOU STAYED.."  1:24 - 1:37

First riff is same beat as beginning
D|---------------------------------------------------------------------------|
A|---------------------------------------------------------------------------|
F|---------------------------------------------------------------------------|
C|--0~------5---8-------0~-----5~----8~--------------------------------------|
G|--0~------5---8-------0~-----5~----8~--------------------------------------|
C|--0~------5---8-------0~-----5~----8~--------------------------------------|

NOTHING EVER MADE SENSE... 1:38 - 1:57

BEAT: X--XX-X-X--|X (ALL OPEN) VVVVV
D|---------------|
A|---------------|
F|---------------|
C|--0------------|
G|--0------------|
C|--0------------|

Pinched harmonic to a constant pull-off riff   1:58 - 2:25
D|----------------------------------------------------------------------------|
A|--------------Repeat alot --------------------------------------------------|
F|---------------______________-----------------------------------------------|
C|-12^----------|-------------|-----------------------------------------------|
G|--------------|-------------|-----------------------------------------------|
C|--------------|-6*3*0--6*3*0|-----------------------------------------------|

Bridge:  2:26
D|----------------------------------------------------------------------------|
A|----------------------------------------------------------------------------|
F|----------------------------------------------------------------------------|
C|-----3------5---888--10-----------------------------------------------------|
G|-----3------5---888--10-----------------------------------------------------|
C|-----3------5---888--10-----------------------------------------------------|

VERSE 3:  2:28 - 2:56
Alternate between these two chords
D|----------------------------------------------------------------------------|
A|----------------------------------------------------------------------------|
F|----------------------------------------------------------------------------|
C|--12-------10-----------------------------12~-------------------------------|
G|--12-------10--------------------end on---12~-------------------------------|
C|--12-------10-----------------------------12~-------------------------------|

GUITAR BREAK
KEYS CONTINUE WITH ALTERNATING CHORDS 3:10-3:35
D|----------------------------------------------------------------------------|
A|----------------------------------------------------------------------------|
F|----------------------------------------------------------------------------|
C|---12-----10------------------------10--------------------------------------|
G|---12-----10-------------END ON-----10--------------------------------------|
C|---12-----10------------------------10--------------------------------------|

VERSE 4:
TEMPO WAY FASTER "SAY HELLO TO THIS BARK.."  3:39 - 3:50

D|---3 SETS OF TRIPLETS---------------------------10-9-8--14-13-12-----------|
A|-----------------------------------------10-9-8----------------------------|
F|---------------------------------10-9-8------------------------------------|
C|----0-0-0--0-0-0--0-0-0----------------------------------------------------|
G|----0-0-0--0-0-0--0-0-0----------------------------------------------------|
C|----0-0-0--0-0-0--0-0-0--------Tried my best here ^^-----------------------|

FAST.. figure out the beat
D|--------------------------|-------------------------------------------------|
A|--------------------------|-------------------------------------------------|
F|----------3--3----3-------|-------------------------------------------------|
C|----------7--7----7-------|-------------------------------------------------|
G|--------------------------|-------------------------------------------------|
C|--0000----------0---------|-------------------------------------------------|


TRIPLETS AT FIRST        THEN SINGLES
D|----------------------------------------------------------------------------|
A|----------------------------------------------------------------------------|
F|----------------------------------------------------------------------------|
C|---3--2--1--0--------3-2--1-1-1-0-0-0---------------------------------------|
G|---3--2--1--0--------3-2--1-1-1-0-0-0---------------------------------------|
C|---3--2--1--0--------3-2--1-1-1-0-0-0---------------------------------------|

AND BACK TO THIS RIFF
D|--------------------------|-------------------------------------------------|
A|--------------------------|-------------------------------------------------|
F|----------3--3----3-------|-------------------------------------------------|
C|----------7--7----7-------|-------------------------------------------------|
G|--------------------------|-------------------------------------------------|
C|--0000----------0---------|-------------------------------------------------|

SLOW PART:  3:51 - 4:09
 REPEAT 4 TIMES
D|---6.-5.-6.-5.-6.-5.-6.-5.-----5.-4.-5.-4.-5.-4.-5.-4.-------------------------|
A|-------------------------------------------------------------------------------|
F|-------------------------------------------------------------------------------|
C|--------------------------------------------------------12~---11---------------|
G|--------------------------------------------------------12~---11---------------|
C|--------------------------------------------------------12~---11---------------|

SIMPLE BEAT REPEAT ALOT  *WHISTLE*   4:10 - 4:39
D|---------------------|--------------------------5--------7-5---------------|
A|---------------------|-----------------------------5-----------5-----------|
F|---------------------|--------------------------------5--------------------|
C|-----7--7-------7----|------END WITH-----5---------------------------------|
G|-----5--5-------5----|-------------------5---------------------------------|
C|--0----------0-------|-----------------------------------------------------|

GUITAR BREAK "WITH A WIRE WRAPPED AROUND HIS NECK.."

EVENTUALLY COMES IN WITH A BUNCH OF OPENS  4:54 - 5:07
(FIGURE OUT BEAT)
D|--------------|-------------------------------------------------------------|
A|--------------|-------------------------------------------------------------|
F|--------------|-------------------------------------------------------------|
C|--0-0---0-0---|----10-10-10-10-10-10----------------------------------------|
G|--0-0---0-0---|----10-10-10-10-10-10----------------------------------------|
C|--0-0---0-0---|----10-10-10-10-10-10----------------------------------------|


FINAL VERSE: "STOP REWIND...." REPEAT ONCE   5:08 - 5:38
D|---------------------------------------------------------------------------|
A|---------------------------------------------------------------------------|
F|---------------------------------------------------------------------------|
C|--12-12--12-12-----12-12--12-12------8-8--8-8----10-10-10-10--12-12--12-12-|
G|--12-12--12-12-----12-12--12-12------8-8--8-8----10-10-10-10--12-12--12-12-|
C|--12-12--12-12-----12-12--12-12------8-8--8-8----10-10-10-10--12-12--12-12-|

REPEAT FROM: 5:39 - 5:46
BEAT xx-xx-xxxxx
D|----------------------------------------------------------------------------|
A|----------------------------------------------------------------------------|
F|----------------------------------------------------------------------------|
C|--0-0--0-0------0-0-0-0-0---------------------------------------------------|
G|--0-0--0-0------0-0-0-0-0---------------------------------------------------|
C|--0-0--0-0------0-0-0-0-0---------------------------------------------------|

lAST GUITAR RIFF:  5:47 - 5:53
BEAT xx-xx-xxxxxxxx
D|----------------------------------------------------------------------------|
A|----------------------------------------------------------------------------|
F|----------------------------------------------------------------------------|
C|--8-8--8-8------10-10-10-10-10-------12~------------------------------------|
G|--8-8--8-8------10-10-10-10-10-------12~------------------------------------|
C|--8-8--8-8------10-10-10-10-10-------12~------------------------------------|


KEYBOARD/OUTRO: 5:54 - END

D|----------------------------------------------------------------------------|
A|-10----10---10----10----------8----8----8----8------------------------------|
F|----10----10----10---10---------10---10---10---10---------------------------|
C|----------------------------------------------------------------------------|
G|----------------------------------------------------------------------------|
C|----------------------------------------------------------------------------|

D|----------------------------------------------------------------------------|
A|-10----10---10----10----------8----8------7----7---7----7-------------------|
F|----10----10----10---10---------10---10------6----6---6----6----------------|
C|----------------------------------------------------------------------------|
G|----------------------------------------------------------------------------|
C|----------------------------------------------------------------------------|

D|----------------------------------------------------------------------------|
A|---8----8---8----8-----------10----10---10----10----------------------------|
F|-----7----7----7----7-----------10----10---10----10-------------------------|
C|----------------------------------------------------------------------------|
G|----------------------------------------------------------------------------|
C|----------------------------------------------------------------------------|

D|----------------------------------------------------------------------------|
A|---------9------13---13---13----13------------------------------------------|
F|------10-----------10---10---10---10----------------------------------------|
C|----------------------------------------------------------------------------|
G|----------------------------------------------------------------------------|
C|----------------------------------------------------------------------------|

Any questions or comments feel free to email me:  jeff_ohh@yahoo.com

-Jeff Peterson
Добавлено: 08.03.2012
Другие материалы по этой песне:

Страница создана 08.03.2012
http://primanota.ru/i-set-my-friends-on-fire/reeses-pieces-i-dont-know-who-john-cleese-is-chords.htm
Привет, Гость.
Предлагаем пройти революционный курс по гитаре.
Подарок от PrimaNota.Ru, забирай!