PrimaNota.ru - самый крупный в мире бесплатный архив песенных текстов, аккордов, табулатур и нот


I Set My Friends On Fire - Infinite Suck - таба, видео

Регистрация Запомнить меня
Войти через:  Facebook Google Twitter Vk Yandex Mail.ru

I Set My Friends On Fire - Infinite Suck - таба, видео

Печатать
Просмотров: 228
Band: I Set My Friends On Fire
Song: Infinite Suck
Tuning: Drop C

Verse:
D|-----------------------------------------------------------------|
A|-----------------------------------------------------------------|
F|-----------------------------------------------------------------|
C|-----2-------2-------2-------2-------7-------7-------7-------7---|
G|---0---0---0---0---0---0---0---0---5---5---5---5---5---5---5---5-|
C|-3-------3-------3-------3-------8-------8-------8-------8-------|

D|------------------------------------------------------------------|
A|-----------------------------------------------------4-4-4-4b4b4b-|
F|-----------------------------------------------------7-7-7-7-7-7--|
C|-----2-------2-------2-------2------------------------------------|
G|---0---0---0---0---0---0---0---0---5-5---5-----5-5----------------|
C|-3-------3-------3-------3-------8-----8---8-8-----8--------------|
                                   .     .   . .     .
play this whole part twice ^

Djent/blues riff
D|-------------------------------------------------------------------------|
A|--------------------------5555-55-7--------------------------5555-55-5-5-|
F|-131313131313131313131313-6666-66-8-131313131313131313131313-6666-66-6-6-|
C|-121212121212121212121212-----------121212121212121212121212-------------|
G|-111111111111111111111111-----------111111111111111111111111-------------|
C|-------------------------------------------------------------------------|

D|--------------------------------------------------------------|
A|-5555-55--9--5555-55-5-5--5555-55-7--5555-55-5-5--5555-55--9~-|
F|-6666-66-10--6666-66-6-6--6666-66-8--6666-66-6-6--6666-66-10~-|
C|--------------------------------------------------------------|
G|--------------------------------------------------------------|
C|--------------------------------------------------------------|

[weird spacey part]

D|---------------------------------------------------|
A|---------------------------------------------------|
F|-12-12-1212-12-1212-12-12-12-12-1212-12-1212-12-12-|
C|--x--x--x-x--x--x-x--x--x--x--x--x-x--x--x-x--x--x-|
G|-10-10-1010-10-1010-10-10-10-10-1010-10-1010-10-10-|
C|---------------------------------------------------|

D|---------------------------------------------------|
A|---------------------------------------------------|
F|-12-12-1212-12-1212-12-12-14-14-1414-14-1414-14-14-|
C|--x--x--x-x--x--x-x--x--x--x--x--x-x--x--x-x--x--x-|
G|-10-10-1010-10-1010-10-10-12-12-1212-12-1212-12-12-|
C|---------------------------------------------------|

D|--------------------------------------|
A|--------------------------------------|
F|--------------------------------------|
C|-22~--22-22-22~--22-22-22~--22-22-22~-|
G|-22~--22-22-22~--22-22-22~--22-22-22~-|
C|-22~--22-22-22~--22-22-22~--22-22-22~-|

D|-----------------------------------------|
A|--9-9-9-9--9--9--9-9--9--5555-5-5-55/7\5-|
F|-10101010-10-10-1010-10--6666-6-6-66/8\6-|
C|-----------------------------------------|
G|-----------------------------------------|
C|-----------------------------------------|

D|---------------------------------------|
A|--9-9-9-9--9--9--9-9--9--5555-5-5-55-5-|
F|-10101010-10-10-1010-10--6666-6-6-66-6-|
C|---------------------------------------|
G|---------------------------------------|
C|---------------------------------------|

End Breakdown:

D|-------------------------------|[x4]
A|-------------------------------|
F|-------------------------------|
C|-0~-0000~-0000-0-0-0-----------|
G|-0~-0000~-0000-0-0-0-----------|
C|-0~-0000~-0000-0-0-0-12\\\\\\\-|
   .  ....  .... . . .  ........
Добавлено: 03.05.2012
Другие материалы по этой песне:
  • Аккорды и текст

Страница создана 03.05.2012
http://primanota.ru/i-set-my-friends-on-fire/infinite-suck-chords.htm
Привет, Гость.
Предлагаем пройти революционный курс по гитаре.
Подарок от PrimaNota.Ru, забирай!