PrimaNota.ru - самый крупный в мире бесплатный архив песенных текстов, аккордов, табулатур и нот


I Set My Friends On Fire - But The Nuns Are Watching - текст песни, таба, видео

Регистрация Запомнить меня
Войти через:  Facebook Google Twitter Vk Yandex Mail.ru

I Set My Friends On Fire - But The Nuns Are Watching - текст песни, таба, видео

Печатать
Просмотров: 332
-------------------------------------------------------------------------------
                             but the nuns are watching - ismfof
-------------------------------------------------------------------------------
Tabbed by: TheTroy
Tuning: Drop C!

Intro
e|---------------------------------------------------------------------------|
B|-------12p8-x-7h8-8-8-8-8-8-8-8--------------------------------------------|
G|-9p8p0------------12121212121212-< TWELVES---------------------------------|
D|---------------------------------------------------------------------------|
A|---------------------------------------------------------------------------|
E|---------------------------------------------------------------------------|

intro pt 2 (just mess with this)
e|---------------------------------------------------------------------------|
B|---------------------------------------------------------------------------|
G|---------------------------------------------------------------------------|
D|-2-2-xx-2-2----------------------------------------------------------------|
A|-2-2-xx-2-2----------------------------------------------------------------|
E|-2-2-xx-2-2----------------------------------------------------------------|

play intro again

chorus (here are the chords. figure out strum yourself)
e|---------------------------------------------------------------------------|
B|---------------------------------------------------------------------------|
G|---------------------------------------------------------------------------|
D|-2---5---7-----------------------------------------------------------------|
A|-2---5---7-----------------------------------------------------------------|
E|-2---5---7-----------------------------------------------------------------|

play intro pt 2

bridge pt 1
e|---------------------------------------------------------------------------|
B|---------------------------------------------------------------------------|
G|-5-5-5-5-5-5-7-7-7-7-7-7---------------------------------------------------|
D|-5-5-5-5-5-5-7-7-7-7-7-7-1-------------------------------------------------|
A|-3-3-3-3-3-3-5-5-5-5-5-5-1-------------------------------------------------|
E|-------------------------1-------------------------------------------------|

bridge pt 2
e|-------------------10---10---10~-------------------------------------------|
B|-------------------14---14------14~----------------------------------------|
G|-----------------------------------12~-------------------------------------|
D|-0-------------------------------------------------------------------------|
A|-0-0-0-0-0-0-0-0-0----0----0-----------------------------------------------|
E|-0-0-0-0-0-0-0-0-0----0----0-----------------------------------------------|
     . . . . . . . .    .    .

bridge pt 3 (the greatest singing ive ever heard with the greatest little
riff ever)
e|---------17-----14----------14-----------------17----14----------14--------|
B|--15--15-----15----14-15-14----15-14-15-----------------14-15-14----15-14--|
G|----------------------------------------14--14----14-----------------------|
D|---------------------------------------------------------------------------|
A|---------------------------------------------------------------------------|
E|---------------------------------------------------------------------------|

e|---------------------------------------------------------------------------|
B|-15------------------------------------------------------------------------|
G|---------------------------------------------------------------------------|
D|---------------------------------------------------------------------------|
A|---------------------------------------------------------------------------|
E|---------------------------------------------------------------------------|

next part (i know this probably isnt correct but close enough. not hard to
figure out rest)
e|-----10-10-----------------------------------------------------------------|
B|-----9--9------------------------------------------------------------------|
G|-----7--7------------------------------------------------------------------|
D|-0-0-----------------------------------------------------------------------|
A|-0-0-----------------------------------------------------------------------|
E|-0-0-----------------------------------------------------------------------|


| /  slide up
| \  slide down
| h  hammer-on
| p  pull-off
| ~  vibrato
| +  harmonic
| x  Mute note
===============================================================================
Добавлено: 01.04.2012
Другие материалы по этой песне:
  • Аккорды и текст

Страница создана 01.04.2012
http://primanota.ru/i-set-my-friends-on-fire/but-the-nuns-are-watching-chords.htm
Привет, Гость.
Предлагаем пройти революционный курс по гитаре.
Подарок от PrimaNota.Ru, забирай!