PrimaNota.ru - самый крупный в мире бесплатный архив песенных текстов, аккордов, табулатур и нот


I See Stars - Save The Cheerleader - текст песни, таба, видео

Регистрация Запомнить меня
Войти через:  Facebook Google Twitter Vk Yandex Mail.ru

I See Stars - Save The Cheerleader - текст песни, таба, видео

Печатать
Просмотров: 173
I See Stars
3-D
Save The Cheerleader
Drop D (D A D G B e)

(1:04-1:12) x2
|--------|
|--------|
|--------|
|--------|
|-0-000--|
|-0-000--|
    ...

(1:12-1:21) x2
|------------|
|------------|
|-------9-10-|
|------------|
|-0-000-7-8--|
|-0-000------|
    ...

(1:21-1:39) x2
|------------------|-----|
|------------------|-----|
|-9-10-12-14-16-17-|-----|
|------------------|-----|
|-7-8--10-12-14-15-|-0~--|
|------------------|-0~--|

(1:40-'1:50)
|-------------------|
|-------------------|
|-9-12-11/12-11-9-7-|
|-------------------|
|-7-10-9-/10-9--7-5-|
|-------------------|

(1:50-2:01)
|--------------------------|
|--------------------------|
|-16-14-12-11/12-11/12-16~-|
|--------------------------|
|-14-12-10-9-/10-9-/10-14~-|
|--------------------------|

(2:02-2:28) x2
|-5h7-7-7--5h7-7-10h12p10p0-5h7-7-7--5h7-7-|
|-5---5-5--5-5-5------------5---5-5--5-5-5-|
|------------------------------------------|
|------------------------------------------|
|------------------------------------------|
|------------------------------------------|

|-5h7-7-7--5h7-7-10h12p10p0-5h7-7-7--5h7-7-7h8p7p0-|
|-5---5-5--5-5-5------------5---5-5--5-5-5---------|
|--------------------------------------------------|
|--------------------------------------------------|
|--------------------------------------------------|
|--------------------------------------------------|

|-5h7-7-7--5h7-7-10h12p10p0-------------------------|
|-5---5-5--5-5-5------------8p7-12p0-10p0-8p0-------|
|---------------------------------------------7h9b~-|
|---------------------------------------------------|
|---------------------------------------------------|
|---------------------------------------------------|

(2:28-2:50) x8
|----------------|
|----------------|
|----------------|
|-/-2-0-2-000000-|
|-/-2-0-2-000000-|
|-/-2-0-2-000000-|
          ......

(2:50-2:58)
|-----------------------------------------------|
|-----------------------------------------------|
|-16-x-16-x-16161616--14-x-14-x-14141414--12/11-|
|----x----x--------------x----x-----------------|
|-14-x-14-x-14141414--12-x-12-x-12121212--10/9--|
|-----------------------------------------------|

cont
|-----------------------------------------|
|-----------------------------------------|
|-11h12p11--------12-11--11h12p11---------|
|----------12/14~-----------------12-14\--|
|-----------------------------------------|
|-----------------------------------------|

dance (2:58-3:14) x3                    4th time
|-15p14-------14h15p14----15p14----|-17p0----17p0----17p0----17p0----|
|-------15-------------15-------15-|------15------15------15------15-|
|----------16----------------------|---------------------------------|
|----------------------------------|---------------------------------|
|----------------------------------|---------------------------------|
|----------------------------------|---------------------------------|


keep dancing (3:14-3:18) x2
|----------------|
|----------------|
|-12-11-9/11-7-7-|
|----------------|
|-10-9--7/9--5-5-|
|----------------|

(3:18-3:22)
|----------------|
|----------------|
|-12-11-9/11-7/9-|
|----------------|
|-10-9--7/9--5/7-|
|----------------|

(3:22-3:26)
|-------------------------------------|
|-------------------------------------|
|-12-11-9/11-7-7--12-11-12/141414-----|
|-------------------------------------|
|-10-9--7/9--5-5--10-9--10/121212-10~-|
|---------------------------------10~-|

(3:26-3:53) x4
|----------------------|
|----------------------|
|----------------------|
|-2-5-0~---------------|
|-2-5-0~--2p0-2p0-2p0~-|
|-2-5-0~--2p0-2p0-2p0~-|

(3:53-4:09)
|-------------|
|-------------|
|-------------|
|-2-5-0~---2~-|
|-2-5-0~---2~-|
|-2-5-0~---2~-|







Добавлено: 14.04.2012
Другие материалы по этой песне:
  • Аккорды и текст

Страница создана 14.04.2012
http://primanota.ru/i-see-stars/save-the-cheerleader-chords.htm
Привет, Гость.
Предлагаем пройти революционный курс по гитаре.
Подарок от PrimaNota.Ru, забирай!